» »

/0-9/1017-tabs-42489.html

»

1017 - Ibun Tabs

Artists:  A B C D E F G H I J K L M N O P Q R S T U V W X Y Z # 

Ibun Tabs

(ver. 1) Click to play this song!
1017
 Rating:
4/5 (4 votes)


 Ibun lessons Tabs too difficult? Try these video lessons and learn fast
 
                Tuning: Standard

Intro: B-F#-E (2x)

e------2--44-2-4-2----|I
b---------------------|I
g--4-4----------------|I
d---------------------|I
a---------------------|I
E---------------------|I
then, pasok ang guitar 2 and adlib...

e------2--44-2-4-2--77-66-44-2h4-2h4-22-----|I
b-------------------------------------------|I
g--4-4--------------------------------------|I
d-------------------------------------------|I
a-------------------------------------------|I
E-------------------------------------------|I
play this two times...while playing this:

e----------------------------------------------------|I
b----------------------------------------------------|I
g----------------------------------------------------|I
d----------------------------------------------------|I
a--2222222-----------------2222222-------------------|I
E----------22222-0000-2222---------22222-0000-2222---|I
...timingan nyo na lang po...ung 0000 jan..pwede din 7777 sa a string....same lang un...

verse:(pakitimingan na lang po)
e-----------------------------------------------------------------------|I
b-----------------------------------------------------------------------|I
g-----------------------------------------------------------------------|I
d-----------------------------------------------------------------------|I
a--2222222--------------------6666-------777777---22222-----------------|I
E------------22222----4444---------------------------------222222-------|I
sa loob.....sasakyan..siyang..raramdaman.di nya..mapigilan..kamutin..

e-----------------------------------------------------------------------|I
b-----------------------------------------------------------------------|I
g-----------------------------------------------------------------------|I
d-----------------------------------------------------------------------|I
a--2222222--------------------6666------777777---22222------------------|I
E------------22222----4444---------------------------------222222-------|I
  kamay...nasa bulsa..akala...pera...  pero..   pala...   buni sa...

   B       F#              G#m        Ebm
Sa loob ng sasakyan meron siyang nararamdaman
   E                  B          F#
At di niya talaga mapigilan kamutin ang kanyang tiyan
 B                 F#     G#m                 Ebm
Kamay niya'y nasa bulsa, akala ko'y kukuha ng pera
  E                     B       F#
Pero kinamot nya lang pala ang buni sa kanyang hita...

refrain:[strum]
(meju mabagal po kasi dito...timing lang po)

 G#m      Eb/G            F#             
wag kang mahiya sa akin dahil hindi ko sasabihin
        C#m        Ebm
na ang buni mo ay kumakapal na
      E                 F#...(hold)
sing kapal ng balat ng baka

Chorus:[strum]

e---------------------------------------|I
b---------------------------------------|I
g---------------------------------------|I
d--4-44----6-66---7-77---9--------------|I
a--2-22/---4-44---5-55---7--------------|I
E---------------------------------------|I
problema...kapag..ka...

e---------------------------------------|I
b---------------------------------------|I
g---------------------------------------|I
d--4-44----6-66---7-77---9--------------|I
a--2-22/---4-44---5-55---7--------------|I
E---------------------------------------|I
kung..  bakit..pwet...

               B    Ebm             E-F#
Ang laki ng problema kapag may buni ka...
                B    Ebm                      E-F#
Nagtatanong kung bakit kumakalat ang iyong pwet...

(di ako masyado sure sa banda dito)
               G#m        Eb/G         F#
Ang hindi mo nalalaman na nakakahawa yan..

e---------------------------------------|I
b---------------------------------------|I
g---------------------------------------|I
d--66----88----99--11-1111--------------|I
a--44/---66/---77---9--99---------------|I
E---------------------------------------|I
 sabi..lolo..buhu..ng asido...
          C#m     Ebm  E       F#      (intro)
kaya ang sabi ni lolo buhusan ng asido...

e------2--44-2-4-2--77-66-44-2h4-2h4-22-----|I
b-------------------------------------------|I
g--4-4--------------------------------------|I
d-------------------------------------------|I
a-------------------------------------------|I
E-------------------------------------------|I
play this two times...while playing this:

e----------------------------------------------------|I
b----------------------------------------------------|I
g----------------------------------------------------|I
d----------------------------------------------------|I
a--2222222-----------------2222222-------------------|I
E----------22222-0000-2222---------22222-0000-2222---|I

     B        F#     G#m            Ebm
Ang likot mo talaga, daig mo pa ang di napagka
    E          B         F#
ang buni mo ay kumakalat umabot na sa iyong balikat

[ref](meju mahina banat)
[koro]
adlib:

e------2--44-2-4-2--77-66-44-2h4-2h4-22-----|I
b-------------------------------------------|I
g--4-4--------------------------------------|I
d-------------------------------------------|I
a-------------------------------------------|I
E-------------------------------------------|I
then..biglang taas ng isang octave...(i think)

e--------14--1616-14-16-14--1919-1818-1616-14h16-14h16-1414----|I
b--------------------------------------------------------------|I
g--12-12-------------------------------------------------------|I
d--------------------------------------------------------------|I
a--------------------------------------------------------------|I
E--------------------------------------------------------------|I
then...biglang bilis na banat..ganito pattern:

e-------14----14-16-14---------|I
b--1212----12------------------|I
g------------------------------|I
d------------------------------|I
a------------------------------|I
E------------------------------|I
play nyo ito mabilis ng four times...
then...biglang pataas ito e...kulang fret ng acoustic gitara e..kayo na po bahala..(master's help)

[koro]except last line
          C#m       Ebm   E          F#
Kaya ang sabi ni lolo ikiskis mo sa semento
     C#m      Ebm  E           F#
Ang sabi ni lolo paluin mo ng maso
       C#m    Ebm  E      F#
Ang sabi ni lolo buhusan ng asido...

[adlib po...pattern...B-F#-E-F#]

e----------------------------------------------------|I
b----------------------------------------------------|I
g----------------------------------------------------|I
d----------------------------------------------------|I
a--2222222-----------------2222222-------------------|I
E----------22222-0000-2222---------22222-0000-2222---|I

e------2--44-2-4-2--77-66-44-2h4-2h4-22-----|I
b-------------------------------------------|I
g--4-4--------------------------------------|I
d-------------------------------------------|I
a-------------------------------------------|I
E-------------------------------------------|I
buhusan mo ng asido...

e------2--44-2-4-2--77-66-44-2h4-2h4-22------------|I
b--------------------------------------------------|I
g--4-4------------------------------------4--------|(hold)-I
d--------------------------------------------------|I
a--------------------------------------------------|I
E--------------------------------------------------|I
[fin]

====pls pakirate po!...narinig ko lang po ito sa radyo..kaya pasensya na if may mali sa 
rocking!hi to all olongapeños!
            
Submit corrections



        Ibun lessons Hard to play? Try these video lessons and learn fast Ibun lessons
        
↑ Back to top | Tablatures and chords for acoustic guitar and electric guitar, ukulele, drums are parodies/interpretations of the original songs. You may use it for private study, scholarship, research or language learning purposes only