» » »

No God Tabs (ver.1)

Artists:  A B C D E F G H I J K L M N O P Q R S T U V W X Y Z # 

No God Tabs (ver.1)

Zymurgy
Rating:
0/5 (0 votes)

Hard to play? Try these video lessons and learn fast.
                guitar 1

E#--------------------------------------------------------------------------------
B#--------------------------------------------------------------------------------
G#---------3/2---------3/2---------3/2---------3/2---------3/2---------3/2--------
D#---------3/2---------3/2---------3/2---------3/2---------3/2---------3/2--------
A#---------5/3---------5/3---------5/3---------5/3---------5/3---------5/3--------
E--0-0-0-0-----0-0-0-0-----0-0-0-0-----0-0-0-0-----0-0-0-0-----0-0-0-0------------

GUITAR2
E-----------^------------^------------^------------^------------^------------^--
B----------9/7----------9/7----------9/7----------9/7----------9/7----------9/7
G-------------------------------------------------------------------------------
D-------------------------------------------------------------------------------
A-------------------------------------------------------------------------------
E-------------------------------------------------------------------------------

I DONT KNOW THE SOLO SORRY
            
Hard to play? Try these video lessons and learn fast. | Correct




comments powered by Disqus
↑ Back to top | Tablatures and chords are parodies/interpretations of the original songs. You may use it for private study, scholarship, research or language learning purposes only