» » »

Zymurgy, No God Tabs (ver.2)

Artists:  A B C D E F G H I J K L M N O P Q R S T U V W X Y Z # 

No God Tabs (ver.2)

Zymurgy Tabs
Rating:
0/5 (0 votes)
No God lessons Tabs too difficult? Try these video lessons and learn fast
                (ebgdaE)								    






								  x2
e--------------------------------------------12h13h12h13h12--------
b--------------------------------13p12----------------------------------
g------12h13h12h14h12----------------------------------------------
d-14-----------------------------------------------------------------------

								     x2
e-------------15----------------14----------13------------------------
b-12-14-15------12-13-14------12-13---------------------------


e-12-12--15-14---------------l-----------------------------------------
b----------------------15-13----l--12-12--15------12---------------
g---------------------------------l-----------------14------14---12-----


								    x2
e--------------------------------------------12h13h12h13h12-------
b--------------------------------13p12----------------------------------
g------12h13h12h14h12----------------------------------------------
d-14-----------------------------------------------------------------------


e-24-24--22h24h22--20---l------------------------------------------
b--------------------------------l--24-24--22h24h22-----------------
g--------------------------------l---------------------------21------------

e-24-24--22h24h22--20---l-----------------------------24^--------
b--------------------------------l--24-24--22h24h22-----------------
g--------------------------------l-------------------------------------------


e-12h15h12-------12h15h12--------12h15h12-----------------------
b----------------15-----------------14-----------------13----12h13h12--


e-12h15h12--------12h14h12-------12h13h12---------12h13h12--
b----------------15-----------------14------------------13-------------------


e-----------------------------------------------------24^--24^--24^--24^--
b-12^---12^---12^-----16^---16^---16^--------------------------------
            

comments powered by Disqus
↑ Back to top | Zymurgy Tabs for No God. Lyrics for acoustic guitar and electric guitar. Tablatures and chords are parodies/interpretations of the original songs. You may use it for private study, scholarship, research or language learning purposes only