» » »

Zwan, Lyric Tabs (ver.5)

Artists:  A B C D E F G H I J K L M N O P Q R S T U V W X Y Z # 

Lyric Tabs (ver.5)

Zwan Tabs
 Rating:
4/5 (4 votes)
Lyric lessons Tabs too difficult? Try these video lessons and learn fast
                (Intro)
This is an awesome song from a kick ass band.

Tuning: EADBGe

Gtr.1
e|----------0----------------------------5------------5----------|
B|------3-----3---3----3------3------3-----3------3-----3--------|
G|----2---2-----0----0---0--0---0--0---0----0---0---0-----0------|
D|--0---------------2------4------5-----------5------------------|
A|---------------------------------------------------------------|
E|---------------------------------------------------------------|
You play this twice before the 1st verse comes in. The 1st verse 
is this too.

Gtr.2
e|-------------------------------|
B|-------------------------------|
G|---12~----11~------9~----------|
D|-------------------------12~---|
A|-------------------------------|
E|-------------------------------|

Gtr.3  D U D
e|-----0-0-0---------------------|
B|-----3-3-3---------------------|
G|-----2-2-2---------------------|
D|-----0-0-0---------------------|
A|-------------------------------|
E|-------------------------------|

e|-----------------------------|
B|-----------------------------|
G|-------------------4---6-----|
D|----2---4---5---7------------|
A|-----------------------------|
E|-----------------------------|
Bass transcribed for the guitar.

U= up strokes
D= down strokes
~= vibrato 
            
Submit corrections

comments powered by Disqus
↑ Back to top | Zwan Tabs for Lyric. Lyrics for acoustic guitar and electric guitar. Tablatures and chords are parodies/interpretations of the original songs. You may use it for private study, scholarship, research or language learning purposes only