» » »

Zwan, Lyric Tabs (ver.3)

Artists:  A B C D E F G H I J K L M N O P Q R S T U V W X Y Z # 

Lyric Tabs (ver.3)

Zwan Tabs
Rating:
0/5 (0 votes)
Lyric lessons Tabs too difficult? Try these video lessons and learn fast
                Zwan
Lyric
Off Mary Star of the Sea (2003)
Written by Billy Corgan

Alright, I tabbed the whole song, with every, really
every part the guitars play. Kinda work, but fun. I
hope you will have fun, too with this awesome song.
I told you the effect tweak in my honestly tab, it´s 
no great work… 

Use some soft distortion, but with compressor effects
and that good, old chorus pedal. Some special, bright
distortion for the chord parts and then rock on.

Billy: Eb
Matt: Drop Db
David: Eb


Intro:

David
|----------0-------------------------------5---------------0---------|
|------3-----3---3-----3-------3-------3-----3---3-----3-----3-0-----|
|----2---2-----0-----0---0---0---0---0---0-----0-----0---0-------2---|
|--0---------------2-------4-------5---------------5-----------------|
|--------------------------------------------------------------------|
|--------------------------------------------------------------------|

Matt
|----------------------------------------------------------------0---|
|----------------------------------------------------------------3---|
|----------------------------------------------------------------2---|
|----------------------------------------------------------------0---|
|----------------------------------------------------------------0---|
|----------------------------------------------------------------0---|

Billy
|----------------------------------------------------------0---------|
|------------------------------------------------------------3-0-----|
|----------------------------------------------------------------2---|
|--------------------------------------------------------------------|
|--------------------------------------------------------------------|
|--------------------------------------------------------------------|


Verse:

David plays his Main Hookline, like in the Intro,
Billy sustains a Dsus2 chord and Matt plays the
Lead:

Matt                                                                 2x
|--0-2-------0-2---0-2-----2~~-----3-5-7-10-12-|-------10-------(12)---|
|------3~~~~-----3-----3~~-----3-0-------------|-10-12----10-12--------|
|----------------------------------------------|-----------------------|
|----------------------------------------------|-----------------------|
|----------------------------------------------|-----------------------|
|----------------------------------------------|-----------------------|

Then David and Matt play both the Main Hook twice, while Billy continues
Singing and joins them afterwards with this riff:

Billy + Matt:
                 2x                2x
|--5-------5-------|-5-------2-------|
|----3---3---3---3-|---3---3---3---3-|
|------0-------0---|-----4-------4---|
|------------------|-----------------|
|------------------|-----------------|
|------------------|-----------------|

David            2x                2x
|----------3-------|---------2-------|
|------3-----3---3-|-----------2---2-|
|--------0-----0---|-----4-------4---|
|----0-------------|---4---4---------|
|------------------|-2---------------|
|--3---------------|-----------------|

They repeat this riff and instead of playing
the last section twice, the band plays it once 
and then this:

Billy + Matt
|--5---------|
|----3---4---|
|------4-----|
|------------|
|------------|
|------------|

David
|------------|
|------------|
|------4-----|
|----4---4---|
|--2---------|
|------------|

Then when Billy sings "For I gave my strenght…" play this:

Billy 
|--0-0-0-0-0-0-0-0-3-3-3-3-3-3-3-3-2-2-2-2-2-2-2-2-0-0-0-0-0-0-0-0---|
|--2-2-2-2-2-2-2-2-3-3-3-3-3-3-3-3-2-2-2-2-2-2-2-2-0-0-0-0-0-0-0-0---|
|--2-2-2-2-2-2-2-2-0-0-0-0-0-0-0-0-4-4-4-4-4-4-4-4-0-0-0-0-0-0-0-0---|
|--2-2-2-2-2-2-2-2-0-0-0-0-0-0-0-0-4-4-4-4-4-4-4-4-2-2-2-2-2-2-2-2---|
|--0-0-0-0-0-0-0-0-x-x-x-x-x-x-x-x-2-2-2-2-2-2-2-2-2-2-2-2-2-2-2-2---|
|------------------3-3-3-3-3-3-3-3-----------------0-0-0-0-0-0-0-0---|

David
|--------------------------------------------------------------------|
|--------------------------------------------------------------------|
|--2-2-2-2-2-2-2-2-----------------4-4-4-4-4-4-4-4-------------------|
|--2-2-2-2-2-2-2-2-5-5-5-5-5-5-5-5-4-4-4-4-4-4-4-4-2-2-2-2-2-2-2-2---|
|--0-0-0-0-0-0-0-0-5-5-5-5-5-5-5-5-2-2-2-2-2-2-2-2-2-2-2-2-2-2-2-2---|
|------------------3-3-3-3-3-3-3-3-----------------0-0-0-0-0-0-0-0---|

Matt
|--------------------------------------------------------------------|
|--------------------------------------------------------------------|
|--2-2-2-2-2-2-2-2-----------------4-4-4-4-4-4-4-4-------------------|
|--2-2-2-2-2-2-2-2-5-5-5-5-5-5-5-5-4-4-4-4-4-4-4-4-2-2-2-2-2-2-2-2---|
|--0-0-0-0-0-0-0-0-5-5-5-5-5-5-5-5-2-2-2-2-2-2-2-2-2-2-2-2-2-2-2-2---|
|------------------5-5-5-5-5-5-5-5-----------------2-2-2-2-2-2-2-2---|


Billy 
|--3-3-3-3-3-3-3-3-2-2-2-2-2-2-2-2-0-0-0-0-0-0-0-0---|
|--3-3-3-3-3-3-3-3-2-2-2-2-2-2-2-2-0-0-0-0-0-0-0-0---|
|--0-0-0-0-0-0-0-0-4-4-4-4-4-4-4-4-0-0-0-0-0-0-0-0---|
|--0-0-0-0-0-0-0-0-4-4-4-4-4-4-4-4-2-2-2-2-2-2-2-2---|
|--x-x-x-x-x-x-x-x-2-2-2-2-2-2-2-2-2-2-2-2-2-2-2-2---|
|--3-3-3-3-3-3-3-3-----------------0-0-0-0-0-0-0-0---|

David
|----------------------------------------------------|
|----------------------------------------------------|
|------------------4-4-4-4-4-4-4-4-------------------|
|--5-5-5-5-5-5-5-5-4-4-4-4-4-4-4-4-2-2-2-2-2-2-2-2---|
|--5-5-5-5-5-5-5-5-2-2-2-2-2-2-2-2-2-2-2-2-2-2-2-2---|
|--3-3-3-3-3-3-3-3-----------------0-0-0-0-0-0-0-0---|

Matt
|----------------------------------------------------|
|----------------------------------------------------|
|------------------4-4-4-4-4-4-4-4-------------------|
|--5-5-5-5-5-5-5-5-4-4-4-4-4-4-4-4-2-2-2-2-2-2-2-2---|
|--5-5-5-5-5-5-5-5-2-2-2-2-2-2-2-2-2-2-2-2-2-2-2-2---|
|--5-5-5-5-5-5-5-5-----------------2-2-2-2-2-2-2-2---|


Chorus:

When Billy sings "A Lyric, a time…" the guitars
have a break.


Verse:

Billy 
|--0-0-0-0-0-0-0-0-3-3-3-3-3-3-3-3-2-2-2-2-2-2-2-2-0-0-0-0-0-0-0-0---|
|--2-2-2-2-2-2-2-2-3-3-3-3-3-3-3-3-2-2-2-2-2-2-2-2-0-0-0-0-0-0-0-0---|
|--2-2-2-2-2-2-2-2-0-0-0-0-0-0-0-0-4-4-4-4-4-4-4-4-0-0-0-0-0-0-0-0---|
|--2-2-2-2-2-2-2-2-0-0-0-0-0-0-0-0-4-4-4-4-4-4-4-4-2-2-2-2-2-2-2-2---|
|--0-0-0-0-0-0-0-0-x-x-x-x-x-x-x-x-2-2-2-2-2-2-2-2-2-2-2-2-2-2-2-2---|
|------------------3-3-3-3-3-3-3-3-----------------0-0-0-0-0-0-0-0---|

David
|--------------------------------------------------------------------|
|--------------------------------------------------------------------|
|--2-2-2-2-2-2-2-2-----------------4-4-4-4-4-4-4-4-------------------|
|--2-2-2-2-2-2-2-2-5-5-5-5-5-5-5-5-4-4-4-4-4-4-4-4-2-2-2-2-2-2-2-2---|
|--0-0-0-0-0-0-0-0-5-5-5-5-5-5-5-5-2-2-2-2-2-2-2-2-2-2-2-2-2-2-2-2---|
|------------------3-3-3-3-3-3-3-3-----------------0-0-0-0-0-0-0-0---|

Matt
|--------------------------------------------------------------------|
|--------------------------------------------------------------------|
|--2-2-2-2-2-2-2-2-----------------4-4-4-4-4-4-4-4-------------------|
|--2-2-2-2-2-2-2-2-5-5-5-5-5-5-5-5-4-4-4-4-4-4-4-4-2-2-2-2-2-2-2-2---|
|--0-0-0-0-0-0-0-0-5-5-5-5-5-5-5-5-2-2-2-2-2-2-2-2-2-2-2-2-2-2-2-2---|
|------------------5-5-5-5-5-5-5-5-----------------2-2-2-2-2-2-2-2---|

"So here ends…"


Billy
|--0-0-0-0-0-0-0-0-0-0-0-0-0-0-0-0-3-3-3-3-3-3-3-3-3-3-3-3-3-3-3-3---|
|--3-3-3-3-3-3-3-3-3-3-3-3-3-3-3-3-3-3-3-3-3-3-3-3-3-3-3-3-3-3-3-3---|
|--2-2-2-2-2-2-2-2-2-2-2-2-2-2-2-2-0-0-0-0-0-0-0-0-0-0-0-0-0-0-0-0---|
|--0-0-0-0-0-0-0-0-0-0-0-0-0-0-0-0-0-0-0-0-0-0-0-0-0-0-0-0-0-0-0-0---|
|----------------------------------x-x-x-x-x-x-x-x-x-x-x-x-x-x-x-x---|
|----------------------------------3-3-3-3-3-3-3-3-3-3-3-3-3-3-3-3---|

Matt
|--------------------------------------------------------------------|
|--3-3-3-3-3-3-3-3-3-3-3-3-3-3-3-3-7-7-7-7-7-7-7-7-7-7-7-7-7-7-7-7---|
|--2-2-2-2-2-2-2-2-2-2-2-2-2-2-2-2-7-7-7-7-7-7-7-7-7-7-7-7-7-7-7-7---|
|--0-0-0-0-0-0-0-0-0-0-0-0-0-0-0-0-5-5-5-5-5-5-5-5-5-5-5-5-5-5-5-5---|
|--0-0-0-0-0-0-0-0-0-0-0-0-0-0-0-0-5-5-5-5-5-5-5-5-5-5-5-5-5-5-5-5---|
|--0-0-0-0-0-0-0-0-0-0-0-0-0-0-0-0-5-5-5-5-5-5-5-5-5-5-5-5-5-5-5-5---|

David
|--0-2----0-2-----|
|------3------3---|
|-----------------| 4 times
|-----------------|
|-----------------|
|-----------------|


David + Matt                                                       2x
|----------0-------------------------------5---------------0---------|
|------3-----3---3-----3-------3-------3-----3---3-----3-----3-0-----|
|----2---2-----0-----0---0---0---0---0---0-----0-----0---0-------2---|
|--0---------------2-------4-------5---------------5-----------------|
|--------------------------------------------------------------------|
|--------------------------------------------------------------------|

                                            "You´ll never get out…"


Billy:           2x                2x
|--5-------5-------|-5-------2-------|
|----3---3---3---3-|---3---3---3---3-|
|------0-------0---|-----4-------4---|
|------------------|-----------------|
|------------------|-----------------|
|------------------|-----------------|

David            2x                2x
|----------3-------|---------2-------|
|------3-----3---3-|-----------2---2-|
|--------0-----0---|-----4-------4---|
|----0-------------|---4---4---------|
|------------------|-2---------------|
|--3---------------|-----------------|

They repeat this riff and instead of playing
the last section twice, the band plays it once 
and then this:

Billy 
|--5---------|
|----3---4---|
|------4-----|
|------------|
|------------|
|------------|

David
|------------|
|------------|
|------4-----|
|----4---4---|
|--2---------|
|------------|


Billy 
|--0-0-0-0-0-0-0-0-3-3-3-3-3-3-3-3-2-2-2-2-2-2-2-2-0-0-0-0-0-0-0-0---|
|--2-2-2-2-2-2-2-2-3-3-3-3-3-3-3-3-2-2-2-2-2-2-2-2-0-0-0-0-0-0-0-0---|
|--2-2-2-2-2-2-2-2-0-0-0-0-0-0-0-0-4-4-4-4-4-4-4-4-0-0-0-0-0-0-0-0---|
|--2-2-2-2-2-2-2-2-0-0-0-0-0-0-0-0-4-4-4-4-4-4-4-4-2-2-2-2-2-2-2-2---|
|--0-0-0-0-0-0-0-0-x-x-x-x-x-x-x-x-2-2-2-2-2-2-2-2-2-2-2-2-2-2-2-2---|
|------------------3-3-3-3-3-3-3-3-----------------0-0-0-0-0-0-0-0---|

David
|--------------------------------------------------------------------|
|--------------------------------------------------------------------|
|--2-2-2-2-2-2-2-2-----------------4-4-4-4-4-4-4-4-------------------|
|--2-2-2-2-2-2-2-2-5-5-5-5-5-5-5-5-4-4-4-4-4-4-4-4-2-2-2-2-2-2-2-2---|
|--0-0-0-0-0-0-0-0-5-5-5-5-5-5-5-5-2-2-2-2-2-2-2-2-2-2-2-2-2-2-2-2---|
|------------------3-3-3-3-3-3-3-3-----------------0-0-0-0-0-0-0-0---|

"I crossed my life to spend these years…"


Billy 
|--3-3-3-3-3-3-3-3-2-2-2-2-2-2-2-2-0-0-0-0-0-0-0-0---|
|--3-3-3-3-3-3-3-3-2-2-2-2-2-2-2-2-0-0-0-0-0-0-0-0---|
|--0-0-0-0-0-0-0-0-4-4-4-4-4-4-4-4-0-0-0-0-0-0-0-0---|
|--0-0-0-0-0-0-0-0-4-4-4-4-4-4-4-4-2-2-2-2-2-2-2-2---|
|--x-x-x-x-x-x-x-x-2-2-2-2-2-2-2-2-2-2-2-2-2-2-2-2---|
|--3-3-3-3-3-3-3-3-----------------0-0-0-0-0-0-0-0---|

David
|----------------------------------------------------|
|----------------------------------------------------|
|------------------4-4-4-4-4-4-4-4-------------------|
|--5-5-5-5-5-5-5-5-4-4-4-4-4-4-4-4-2-2-2-2-2-2-2-2---|
|--5-5-5-5-5-5-5-5-2-2-2-2-2-2-2-2-2-2-2-2-2-2-2-2---|
|--3-3-3-3-3-3-3-3-----------------0-0-0-0-0-0-0-0---|


This time Matt is doing a little Lead part over it all,
when the Main Hook is stopped:

Matt
|--------------------------------------------------------------|
|--------------------------------------------------------------|
|--------------------------------------------------4---4-6-6---|
|--------------------------------------------------------------|
|--------------------------------------------------------------|
|--------------------------------------------------------------|

Matt
|-----------------------------------------------------------------|
|------------------------------------8---7----------------8---8---|
|---7----------------7------7-9-9------------9-7---9--------------|
|----------5-4----------------------------------------------------|
|-----------------------------------------------------------------|
|-----------------------------------------------------------------|

Matt
|--5-5----7~~~--------------7------------7-9-9---10~~~--------10---|
|------------------------------------------------------------------|
|------------------------------------------------------------------|
|------------------------------------------------------------------|
|------------------------------------------------------------------|
|------------------------------------------------------------------|

Matt
|-----10-12-12---14------12-----------------------------------------|
|---------------------------15-14~~----------------15-14-12-14-15---|
|-------------------------------------------------------------------|
|-------------------------------------------------------------------|
|-------------------------------------------------------------------|
|-------------------------------------------------------------------|

Matt
|------------------------|
|--14-12-----------------|
|--------14~~------------|
|------------------------|
|------------------------|
|------------------------|


For the last Chorus just resume the opening riff some time.
            

comments powered by Disqus
↑ Back to top | Zwan Tabs for Lyric. Lyrics for acoustic guitar and electric guitar. Tablatures and chords are parodies/interpretations of the original songs. You may use it for private study, scholarship, research or language learning purposes only