» » »

Lyric Tabs (ver.1)

Artists:  A B C D E F G H I J K L M N O P Q R S T U V W X Y Z # 

Lyric Tabs (ver.1)

Zwan
Rating:
4/5 (3 votes)

Hard to play? Try these video lessons and learn fast.
                Gtr I (E A D G B E) - Billy Corgan
Gtr II (E A D G B E) - David Pajo
Gtr III (E A D G B E) - Matt Sweeny 
 
Lyric by Zwan
Best viewed at higher resolutions, 1024x768 and up...or you may get word wrapped!! :)
Okay, this is, in my opinion, the best song on the CD, I think the intertwining
melodies are awesome and it just proves Corgan's brilliance. This song was very 
difficult to tab, but it was worth it.
Here we go!

  Gtr I - Intro pt. A
|---------0-------|-----------------|---------5-------|----------5----------|
|-----3-----3---3-|-----3-------3---|-----3-----3---3-|-----3-------3----3--|
|---2---2-----0---|---0---0---0---0-|---0---0-----0---|---0---0-------0-----|
|-0---------------|-2-------4-------|-5---------------|-5-------------------|
|-----------------|-----------------|-----------------|---------------------|
|-----------------|-----------------|-----------------|---------------------|
|
| Gtr II - I dont think he plays anything here, but play the chords if you want
| 
|-0---------------|-----------------|-----------------|---------------------|
|-3---------------|-3-------3-------|-3---------------|-3-------------------|
|-2---------------|-0-------0-------|-0---------------|-0-------------------|
|-0---------------|-2-------4-------|-5---------------|-5-------------------|
|-----------------|-----------------|-----------------|---------------------|
|-----------------|-----------------|-----------------|---------------------|
|
| Gtr III
|                                                      
|-----------------|-----------------|-----------------|---------------------|
|-----------------|-----------------|-----------------|---------------------|
|-----------------|-----------------|-----------------|---------12-11-9-----|
|-----------------|-----------------|-----------------|-----------------12--|
|-----------------|-----------------|-----------------|---------------------|
|-----------------|-----------------|-----------------|---------------------|


Intro pt. B the and Verse riff (for verse 2 just repeat this riff twice)

    Here...           Comes...           Faith...                            3x
||----------0-------|-----------------|----------0-------|----------0--------||
||o-----3-----3---3-|-----3-------3---|------3-----3---3-|------3-----3---3-o||
||----2---2-----0---|---0---0---0---0-|----0---0-----0---|----0---0-----0----||
||--0---------------|-2-------4-------|--5---------------|--5----------------||
||o-----------------|-----------------|------------------|------------------o||
||------------------|-----------------|------------------|-------------------||
|   Dsus2             Em7                G?                 G?
|                                                                            3x
||--0---------------|-----------------|------------------|-------------------||
||o-3---------------|-3-------3-------|--3---------------|--3---------------o||
||--2---------------|-0-------0-------|--0---------------|--0----------------||
||--0---------------|-2-------4-------|--5---------------|--5----------------||
||o-----------------|-----------------|------------------|------------------o||
||------------------|-----------------|------------------|-------------------||
|
|                                                                            3x
||------------------|-----------------|-------1012-----10|-----1012----------||
||o-----------------|-----------------|---1012----1210---|-1012-------------o||
||--9h11----9h11----|-9h11----7--11---|-12---------------|---------12119-----||
||------12------12--|-----12----------|------------------|--------------12---||
||o-----------------|-----------------|------------------|------------------o||
||------------------|-----------------|------------------|-------------------||


Prechorus 1 - This part I'm not very sure on, I watched the live version, and this 
looks right...and it sounds good....if you dont like it, improv something else, but I
think this is pretty close.

     I...               Stand....
||-------------------|------------------|------------------|-------------------||
||o------0-------0---|------5-------5---|------5-------5---|------5-------5---o||
||-----0---0---0---0-|----7---7---7---7-|----6---6---6---7-|----6---6---6---6--||
||---2-------2-------|--7-------7-------|--7-------7-------|--7-------7--------||
||o------------------|------------------|------------------|------------------o||
||-------------------|------------------|------------------|-------------------||
|
|Again, I don't really think that David plays anything here, but I just put 
| down the chords
||-------------------|------------------|------------------|-------------------||
||o--0---------------|--5---------------|--5---------------|--5---------------o||
||---0---------------|--7---------------|--6---------------|--6----------------||
||---2---------------|--7---------------|--7---------------|--7----------------||
||o------------------|------------------|------------------|------------------o||
||-------------------|------------------|------------------|-------------------||
|    Em                 Dsus2              D                  D
|   
||-------------------|-----12------1215-|------------------|-------------------||
||o-----12------12---|---15--15--15-----|-10------10-------|-10------10-------o||
||----12--12--12--12-|-14------14-------|---11--11--11--11-|---11--11--11--11--||
||--14------14-------|------------------|-----12------12---|-----12------12----||
||o------------------|------------------|------------------|------------------o||
||-------------------|------------------|------------------|-------------------||


Chorus
I've seen many tabs with Bminor instead of Dsus2...I think Dsus2 sounds much better,
but I could be wrong, this is my first tab. David's standout riff is awesome 
ere, and I know that it is 100% correct. Matt's part, on the other hand, I'm not 
sure if it even exists,but the arpeggiated chords sound good.
 
  I...                    Strength...  
|--0----------------------|--3----------------------|
|--2----------------------|--3----------------------|
|--2----------------------|--0----------------------|
|--2----------------------|--0----------------------|
|--0----------------------|--2----------------------|
|-------------------------|--3----------------------|
|  A                         G
| 
|-------------------------|-------------------------|
|-------------------------|-------------------------|
|--4-----4h=6--7----------|--4-----4h=6--7-----6p=4-|
|--------------------5p=4-|-------------------------|
|-------------------------|-------------------------|
|-------------------------|-------------------------|
|
|  
|-------------------------|-------------------------|
|-------14----------14----|-------12----------12----|
|----14----14----14----14-|----12----12----12----12-|
|-14----------14----------|-12----------12----------|
|-------------------------|-------------------------|
|-------------------------|-------------------------|


  Heart...                  Chains...
|--0----------------------|--0-----------------------|
|--3----------------------|--0-----------------------|
|--2----------------------|--0-----------------------|
|--0----------------------|--2-----------------------|
|-------------------------|--2-----------------------|
|-------------------------|--0-----------------------|
|  Dsus2                     Em
| 
|-------------------------|--------------------------|
|--------------7----------|-----8-----8S10-12--------|
|--7-----7h=9--------9p=7-|--9-----------------------|
|-------------------------|--------------------------|
|-------------------------|--------------------------|
|-------------------------|--------------------------|
|
|  
|-------------------------|--------------------------|
|-------15----------15----|-------12-----------12----|
|----14----14----14----14-|----12----12----12-----12-|
|-12----------12----------|-14----------14-----------|
|-------------------------|--------------------------|
|-------------------------|--------------------------|


                            Shine....
|--3----------------------|--0----------------------|
|--3----------------------|--3----------------------|
|--0----------------------|--2----------------------|
|--0----------------------|--0----------------------|
|--2----------------------|-------------------------|
|--3----------------------|-------------------------|
|  G                         Dsus2
| 
|--7-----7h=9-10----------|-10----10h12-14----12p10-|
|-------------------------|-------------------------|
|-------------------------|-------------------------|
|-------------------------|-------------------------|
|-------------------------|-------------------------|
|-------------------------|-------------------------|
|
| 
|-------------------------|-------------------------|
|-------12----------12----|-------15----------15----|
|----12----12----12----12-|----14----14----14----14-|
|-12----------12----------|-12----------12----------|
|-------------------------|-------------------------|
|-------------------------|-------------------------|


   Scar...?
|--0-------------------------||
|--2-------------------------||
|--2-------------------------||
|--2-------------------------||
|--0-------------------------||
|----------------------------||
|  A
|  
|--9----------10-9--7-7h9p7--||
|----------------------------||
|----------------------------||
|----------------------------||
|----------------------------||
|----------------------------||
|
| 
|----------------------------||
|-------14-------------------||
|----14----14----------------||
|-14-------------------------||
|----------------------------||
|----------------------------||

Well, that's basically the entire song, but I'll lay out the order for you guys
who are too lazy to do it yourselves :)

--Whole song layout--
Play all the previous stuff once (in order of course)
Play the Verse riff, Matt's part only, twice
Play Chorus again, but only until the Eminor chord (when David hits the 12th fret B)
Play Verse riff twice
Play Verse riff twice more, but Matt plays Billy's part as well
Play Prechorus
Play Chorus
Play Matt's verse part twice
Play Verse riff three times
All guitars end on Dsus2

|--0--|
|--3--|
|--2--|
|--0--|
|-----|
|-----|

I do not guarantee your satisfaction of this tab, because even if you like it, you
don't get the joy of figuring it out yourself. So please, If you disagree with any
part of this tab, figure out something that sounds better,play it instead, and send
tab, and I've only been playing guitar for less than a year. So please send me 
questions and comments about the tab and any tips on tabbing or guitar playing if 
you would please. Hope you have much fun playing this kick-ass song and expect to 
see more Corgan tabs from me later (SP and Zwan). Peace out and ROCK ON!
            
Hard to play? Try these video lessons and learn fast. | Correct




comments powered by Disqus
↑ Back to top | Tablatures and chords are parodies/interpretations of the original songs. You may use it for private study, scholarship, research or language learning purposes only