» » »

Zutons, Valerie Tabs (ver.2)

Artists:  A B C D E F G H I J K L M N O P Q R S T U V W X Y Z # 

Valerie Tabs (ver.2)

Zutons Tabs
 Rating:
4/5 (8 votes)
Valerie lessons Tabs too difficult? Try these video lessons and learn fast
1
                This is pretty simple but no ones got it right (propper job)
Tuning is Drop D


Guitar 1 - Intro
 |--------------------------------------|
 |11----11----11----11----11----11------|
 |--12----12----12----12----12----12----| x2
 |----13----13----13----13----13----13--|
 |--------------------------------------|
 |--------------------------------------|
Guitar 2 - Intro

|11--
|11--
|12-- gradually getting louder
|13--
|----
|----

Verse - Guitar 2

|13-11-11-11-11-11-----------13-11-11-11-11-11-----------11-13-13-13-13-13-x--|
|13-11-11-11-11-11----8-x-8--13-11-11-11-11-11-----------11-13-13-13-13-13-13-|
|---------------------8-x-8--------------------13-13-12--------------------13-|
|---------------------8-x-8--------------------13-13-12--------------------13-|
|-----------------8h10-----------------------------------------------------15-|
|--------------------------------------------------------------------------15-|

|11-13-13-13-13-13-|
|11-13-13-13-13-13-|
|------------------|
|------------------|
|------------------|
|------------------|

Pre-Chorus Bit
Guitar 2
 |-------------------|
 |13-------11--------|
 |--13-------12------| x3
 |----13-------12----|
 |------15-------13--|
 |-------------------|

 |13----13----13----13----13----13-----|
 |--15----15----15----15----15----15---|
 |----15----15----15----15----15----15-|
 |-------------------------------------|
 |-------------------------------------|
 |-------------------------------------|
Guitar 1

 |---------------------------------------------------------------|
 |---------------------------------------------------------------|
 |---------------------------------------------------------------|
 |66666666-55555555-66666666-55555555-66666666-55555555-88888888-|
 |66666666-55555555-66666666-55555555-66666666-55555555-88888888-|
 |66666666-55555555-66666666-55555555-66666666-55555555-88888888-|


Chorus

Guitar 1

 |-----------------------      -------------------------|
 |-----------------------      -------------------------|
 |-----------------------      -------------------------|
 |1-1-1-1-1-------------- x2   3-3-3-3-3----------------| x2
 |1-1-1-1-1------1-3-1-3-      3-3-3-3-3-------1-3-1-3--|
 |1-1-1-1-1--3s5---------      3-3-3-3-3---3s5----------|

Guitar 2

|-3                            1
|-4                            1
|-3                            1   strum
|-5 strum                      3
|-6                            3
|--                            -

Verse

Same again
then guitar 1 joins with


 |6-----6-----6-----6-----|
 |--8-----8-----8-----8---|
 |----8-----8-----8-----8-| x 2
 |------------------------|
 |------------------------|
 |------------------------|

 |8-----8-----8-----8----------|
 |--9-----9-----9-----9--------|
 |----10----10----10----10 x 2-|
 |-----------------------------|
 |-----------------------------|
 |-----------------------------|


Then same same
Until final chorus is octave higher, like this:

Guitar 2

 |---------------------------------|
 |---------------------------------|
 |---------------------------------|
 |13-13-13-13-13-------------------| x 2
 |13-13-13-13-13-------13-15-13-15-|
 |13-13-13-13-13-15s17-------------|

 |---------------------------------|
 |---------------------------------|
 |---------------------------------| x 2
 |15-15-15-15-15-------------------|
 |15-15-15-15-15-------13-15-13-15-|
 |15-15-15-15-15-15s17-------------|


Enjoy, comments welcome

Shredmicester Supreme
            
Submit corrections

comments powered by Disqus
↑ Back to top | Zutons Tabs for Valerie. Lyrics for acoustic guitar and electric guitar. 1 Tablatures and chords are parodies/interpretations of the original songs. You may use it for private study, scholarship, research or language learning purposes only