» » »

Zutons, Valerie Tabs (ver.1)

Artists:  A B C D E F G H I J K L M N O P Q R S T U V W X Y Z # 

Valerie Tabs (ver.1)

Zutons Tabs
Rating:
4/5 (9 votes)
Valerie lessons Tabs too difficult? Try these video lessons and learn fast
                Zutons
Tired Of Hanging Around

Guitar 1 - Boyan Chowdhury - Light Distortion
Guitar 2 - Dave McCabe - Clean

Intro
Guitar 1
E|-----------------------------------------------------------------------|
B|-11----11----11----11----11----11----11----11-----11-11-11-11-11-11-11-|
G|---12----12----12----12----12----12----12----12---12-12-12-12-12-12-12-|
D|-----13----13----13----13----13----13----13----13-13-13-13-13-13-13-13-|
A|-----------------------------------------------------------------------|
E|-----------------------------------------------------------------------|

Verse Pt 1
Guitar 1
E|-15-15-15-15-15--------------------15-15-15-15-15---------------------|
B|-16-16-16-16-16------11-11-----11--16-16-16-16-16-----13-13---11------|
G|-15-15-15-15-15-X-X--12-12-----12--15-15-15-15-15-X-X-13-13---12------|
D|----------------X-X--13-13-X-X-13-----------------X-X-13-13-X-13------|
A|----------------------------------------------------------------------|
E|----------------------------------------------------------------------|

Verse Pt 1
Guitar 2
E|-3-3-3-3-3----------------3-3-3-3-3-----3-3-3-3-3-3-3-3-3-------------|
B|-4-4-4-4-4----------------4-4-4-4-4-----4-4-4-4-4-4-4-4-4-------------|
G|-3-3-3-3-3-X-X---------3--3-3-3-3-3-X-X-3-3-3-3-3-3-3-3-3-------------|
D|-5-5-5-5-5-X-X-----5---5--5-5-5-5-5-X-X-5-5-5-5-5-5-5-5-5-------------|
A|-6-6-6-6-6-----6-6-6-6-6--6-6-6-6-6-----6-6-6-6-6-6-6-6-6-------------|
E|----------------------------------------------------------------------|

Verse pt 2
Guitar 1
E|-13-13-13-13-13----13~---13-13-13-13-13-------------------------------|
B|-13-13-13-13-13--X-13~---13-13-13-13-13-------------------------------|
G|-13-13-13-13-13--X-13~---13-13-13-13-13-------------------------------|
D|-15-15-15-15-15--X-15~-X-15-15-15-15-15-------------------------------|
A|----------------------------------------------------------------------|
E|----------------------------------------------------------------------|

Verse pt 2
Guitar 2
E|-1-1-1-1-1-1-----------1-1-1-1-1-1------------------------------------|
B|-1-1-1-1-1-1-----------1-1-1-1-1-1------------------------------------|
G|-1-1-1-1-1-1-----------1-1-1-1-1-1------------------------------------|
D|----------------------------------------------------------------------|
A|----------------------------------------------------------------------|
E|----------------------------------------------------------------------|

Pre-chorus pt 1
Guitar 1
E|----------------------------------------------------------------------|
B|-13~------13~------11~-----11~-----13~-----13~------11~----11~--------|
G|-----13~------13~------12~----12~-----13~-----13~------12~----12~-----|
D|----------------------------------------------------------------------|
A|----------------------------------------------------------------------|
E|----------------------------------------------------------------------|

Guitar 2
E|-4-4-4-4-4-4-4-4--3-3-3-3-3-3-3-3--4-4-4-4-4-4-4-4--3-3-3-3-3-3-3-3---|
B|-4-4-4-4-4-4-4-4--3-3-3-3-3-3-3-3--4-4-4-4-4-4-4-4--3-3-3-3-3-3-3-3---|
G|-5-5-5-5-5-5-5-5--3-3-3-3-3-3-3-3--5-5-5-5-5-5-5-5--3-3-3-3-3-3-3-3---|
D|-6-6-6-6-6-6-6-6--5-5-5-5-5-5-5-5--6-6-6-6-6-6-6-6--5-5-5-5-5-5-5-5---|
A|-6-6-6-6-6-6-6-6--5-5-5-5-5-5-5-5--6-6-6-6-6-6-6-6--5-5-5-5-5-5-5-5---|
E|-4-4-4-4-4-4-4-4--3-3-3-3-3-3-3-3--4-4-4-4-4-4-4-4--3-3-3-3-3-3-3-3---|

Pre-Chorus pt 2
Guitar 1
E|-13-10----13-10----13-10----13-10----13-10----13----------------------|
B|-------11-------11-------11-------11-------11-------------------------|
G|----------------------------------------------------------------------|
D|----------------------------------------------------------------------|
A|----------------------------------------------------------------------|
E|----------------------------------------------------------------------|

Guitar 2
E|-6-6-6-6-6-6-6-6-6-6-6-6-6-6-6-6--------------------------------------|
B|-6-6-6-6-6-6-6-6-6-6-6-6-6-6-6-6--------------------------------------|
G|-7-7-7-7-7-7-7-7-7-7-7-7-7-7-7-7--------------------------------------|
D|-8-8-8-8-8-8-8-8-8-8-8-8-8-8-8-8--------------------------------------|
A|-8-8-8-8-8-8-8-8-8-8-8-8-8-8-8-8--------------------------------------|
E|-6-6-6-6-6-6-6-6-6-6-6-6-6-6-6-6--------------------------------------|

Chorus Pt 1
Guitar 1
E|----------------------------------------------------------------------|
B|----------------------------------------------------------------------|
G|------------------3-5-3-5---------------------3-5-3-5-----------------|
D|-1-1-1-1-1--1-3/5----------1-1-1-1-1-1--1-3/5-------------------------|
A|----------------------------------------------------------------------|
E|----------------------------------------------------------------------|

Guitar 2
E|-3--3--3--3--3--3--3--3--3--3--3--3--3--3--3--3-----------------------|
B|-4--4--4--4--4--4--4--4--4--4--4--4--4--4--4--4-----------------------|
G|-3--3--3--3--3--3--3--3--3--3--3--3--3--3--3--3-----------------------|
D|-5--5--5--5--5--5--5--5--5--5--5--5--5--5--5--5-----------------------|
A|-6--6--6--6--6--6--6--6--6--6--6--6--6--6--6--6-----------------------|
E|----------------------------------------------------------------------|

Chorus Pt 2
Guitar 1
E|----------------------------------------------------------------------|
B|----------------------------------------------------------------------|
G|------------------3-5-3-5-------------------3-5-3-5-------------------|
D|-3-3-3-3-3--3-3/5----------3-3-3-3-3--3-3/5---------------------------|
A|----------------------------------------------------------------------|
E|----------------------------------------------------------------------|

Guitar 2
E|-1--1--1--1--1--1--1--1--1--1--1--1--1--1--1--1-----------------------|
B|-1--1--1--1--1--1--1--1--1--1--1--1--1--1--1--1-----------------------|
G|-1--1--1--1--1--1--1--1--1--1--1--1--1--1--1--1-----------------------|
D|-3--3--3--3--3--3--3--3--3--3--3--3--3--3--3--3-----------------------|
A|----------------------------------------------------------------------|
E|----------------------------------------------------------------------|

Well, thats it, enjoy!
            
Submit corrections

comments powered by Disqus
↑ Back to top | Zutons Tabs for Valerie. Lyrics for acoustic guitar and electric guitar. Tablatures and chords are parodies/interpretations of the original songs. You may use it for private study, scholarship, research or language learning purposes only