» » »

No Me Destruyas Tabs (ver.2)

Artists:  A B C D E F G H I J K L M N O P Q R S T U V W X Y Z # 

No Me Destruyas Tabs (ver.2)

Zoe
Rating:
4/5 (3 votes)

Hard to play? Try these video lessons and learn fast.
                no me destruyas (ZoE)

intro. Bm (entra con el bajeo)

solillo.

   (D Bm)3x F#m A
1]---------------------------------------------------------[
2]------------------------------(3x)-----------------------[
3]-7-9-7-9-7-9-7-9---7-9-7-9-7-9-7-9/11-11-11-11-11/12-11--[
4]-----------------7---------------------------------------[
5]---------------------------------------------------------[
6]---------------------------------------------------------[

D        Bm        D         Bm       D          Bm       F#m
ya no me destruyas con tus mitomanías no rasques mis alas que
       A
me duelen
D         Bm       D      Bm          D         Bm
pastillas gigantes recámaras secretas con luces obscenas
F#m           A
sáquenme de aquí

solillo.

   (D Bm)3x F#m A
1]---------------------------------------------------------[
2]------------------------------(3x)-----------------------[
3]-7-9-7-9-7-9-7-9---7-9-7-9-7-9-7-9/11-11-11-11-11/12-11--[
4]-----------------7---------------------------------------[
5]---------------------------------------------------------[
6]---------------------------------------------------------[

D            Bm        D            Bm        D          Bm     F#m
ya es triste aceptarlo pero no vale llorarlo uno siempre recibe
F#m             A
lo que viene dando
G                F#m        G                               F#m
ya no afiles las navajas ya no me haces daño cuando me las clavas
G                   F#m
ya no afiles los colmillos
G                              F#m
ya no me haces daño cuando me desangras
D     Bm  F#m       A     D  Bm   F#m      A
ya no me destruyas más ya no me destruyas más

solillo.

   (D Bm)3x F#m A
1]---------------------------------------------------------[
2]------------------------------(3x)-----------------------[
3]-7-9-7-9-7-9-7-9---7-9-7-9-7-9-7-9/11-11-11-11-11/12-11--[
4]-----------------7---------------------------------------[
5]---------------------------------------------------------[
6]---------------------------------------------------------[

D        Bm        D       Bm       D          Bm       F#m       A
ya no me destruyas mejor desaparece no rasques mis alas que me duelen

  solillo  (G F#m G A)
1]----10-9----10-10-9/10----10-10-9/10----9-10-]
2]---------------------------------------------]
3]-12------12------------11------------11------]
4]---------------------------------------------]
5]---------------------------------------------]
6]---------------------------------------------]

 [---12-9----12-9----12-9----12-14--[
 [----------------10------10--------[
 [12------12------------------------[
 [----------------------------------[
 [----------------------------------[
 [----------------------------------[

G                    F#m
no me destruyas más, no me destruyas más
G               A
no necesito más no me destruyas más
G                F#m        G                               F#m
ya no afiles las navajas ya no me haces daño cuando me las clavas
G                   F#m
ya no afiles los colmillos
G                                 F#m
ya no me hacen daño cuando me los hundes
D     Bm  F#m       A     D  Bm   F#m      A   Bm
ya no me destruyas más ya no me destruyas más

aqui tienen la versio mas complea jejeje...
biene con todo y solo!!!! si alguien kiere mas informacion 
aqui tienen 
            
Hard to play? Try these video lessons and learn fast. | Correct




comments powered by Disqus
↑ Back to top | Tablatures and chords are parodies/interpretations of the original songs. You may use it for private study, scholarship, research or language learning purposes only