» » »

No Me Destruyas Bass tabs (ver.1)

Artists:  A B C D E F G H I J K L M N O P Q R S T U V W X Y Z # 

No Me Destruyas Bass tabs (ver.1)

Zoe
Rating:
0/5 (0 votes)

Hard to play? Try these video lessons and learn fast.
                ZOE

G[-------------------------------------------------------]
D[------(7)------------(7)-----------(7)-----------(7)---]
A[-------------------------------------------------------]
E[-7-7------7--7-7--7------7--7-7-7------7--7-7—7------7-]

G[---------------]
D[---------------]
A[-5--5--5-7-5-2-] X3
E[---------------]

G[---------------------]
D[---------------------]
A[---------------------]
E[-2-2-2-2-2-5-5-5-5-5-]

G[---------------]
D[---------------]
A[-5--5--5-7-5-2-] X3
E[---------------]

G[---------------------]
D[---------------------]
A[---------------------]
E[-5-5-5-5-5-2-2-2-2-2-]

G[---------------]
D[---------------]
A[-5--5--5-7-5-2-] X3
E[---------------]

G[---------------------]
D[---------------------]
A[-2-2-2-2-2-5-5-5-5-5-]
E[---------------------]

G[---------------]
D[---------------]
A[-5--5--5-7-5-2-] X3
E[---------------]

G[---------------------]
D[---------------------]
A[-5-5-5-5-5-2-2-2-2-2-]
E[---------------------]

G[---------------]
D[---------------]
A[-5--5--5-7-5-2-] X3
E[---------------]

G[---------------------]
D[---------------------]
A[---------------------]
E[-2-2-2-2-2-5-5-5-5-5-]


G[-------------------------------------------------]
D[-------------------------------------------------]
A[-------------------------------------------------] X4
E[-3-3-3-3-3-3-3-3-3-3-3-3-2-2-2-2-2-2-2-2-2-2-2-2-]

G[---------------]
D[---------------]
A[-5--5--5-7-5-2-]
E[---------------]


G[---------]
D[---------]
A[-7--5--2-]
E[---------]

G[---------------]
D[---------------]
A[-5--5--5-7-5-2-]
E[---------------]

G[---------------------]
D[---------------------]
A[---------------------]
E[-2-2-2-2-2-5-5-5-5-5-]

G[---------------]
D[---------------]
A[-5--5--5-7-5-2-] X3
E[---------------]

G[---------------------]
D[---------------------]
A[---------------------]
E[-2-2-2-2-2-5-5-5-5-5-]

G[----------]
D[----------]
A[-5--5-5-2-] X3
E[----------]

G[---------------------]
D[---------------------]
A[---------------------]
E[-2-2-2-2-2-5-5-5-5-5-]

G[----------------------------------------]
D[----------------------------------------]
A[----------------------------------------] X8
E[-3-3--3-3--3-3--3-3--2-2--2-2--2-2--2-2-]

G[---------------]
D[---------------]
A[-5--5--5-7-5-2-]
E[---------------]


G[---------]
D[---------]
A[-7--5--2-]
E[---------]

G[---------------]
D[---------------]
A[-5--5--5-7-5-2-]
E[---------------]

G[---------------------]
D[---------------------]
A[---------------------]
E[-2-2-2-2-2-5-5-5-5-5-]



G[-------------------------------------------------------]
D[------(7)------------(7)-----------(7)-----------(7)---]
A[-------------------------------------------------------]
E[-7-7------7--7-7--7------7--7-7-7------7--7-7—7------7-]
            
Hard to play? Try these video lessons and learn fast. | Correct




comments powered by Disqus
↑ Back to top | Tablatures and chords are parodies/interpretations of the original songs. You may use it for private study, scholarship, research or language learning purposes only