» » »

Zico Chain, Where Would You Rather Be Tabs (ver.1)

Artists:  A B C D E F G H I J K L M N O P Q R S T U V W X Y Z # 

Where Would You Rather Be Tabs (ver.1)

Zico Chain Tabs
 Rating:
4.4/5 (7 votes)
Where Would You Rather Be lessons Tabs too difficult? Try these video lessons and learn fast
                THIS IS RIGHT
Nay; this is perfect. No mistaking it. Seriously. Give or take a not e in the occasional 
I know what I am doing. I watched them. Drop C as always for Zico Chain. Enjoy/Destroy

::feedback::

D|-------------------------------|
A|-------------------------------|
F|----3-3p0---0-3-3p0------------|
C|-2--------2--------3p2p0-------|
G|-2--------2--------------------|
C|-2--------2----------------5-3-|x3

D|------------------|
A|------------------|
F|---3-3p0---0-3-3~-|
C|-2-------2-----2~-|
G|-2-------2--------|
C|-2-------2--------|

D|-----------------------|
A|-----------------------|
F|-----------------------|
C|-2----22-2--0-3p2p0----|
G|-2----22-2-------------|
C|-2----22-2---------5-3-|x3

D|----------|
A|----------|
F|----------|
C|-2---22-2-|
G|-2---22-2-|
C|-2---22-2-|

D|-------------------------------|
A|-------------------------------|
F|----3-3p0---0-3-3p0------------|
C|-2--------2--------3p2p0-------|
G|-2--------2--------------------|
C|-2--------2----------------5-3-|x4

D|----------|
A|----------|
F|----------|
C|-8-8-8--\-|
G|-8-8-8--\-|
C|-8-8-8--\-|

D|--------------------|
A|--------------------|
F|-4-447-777-77-77-7\-|
C|-2-225-557-77-77-7\-|
G|-2-225-555-55-55-5\-|
C|-2-225-550-00-00-0--|x4

D|-------------------------------|
A|-------------------------------|
F|----3-3p0---0-3-3p0------------|
C|-2--------2--------3p2p0-------|
G|-2--------2--------------------|
C|-2--------2----------------5-3-|

D|------------------|
A|------------------|
F|---3-3p0---0-3-3~-|
C|-2-------2-----2~-|
G|-2-------2--------|
C|-2-------2--------|

D|-------------------------------|
A|-------------------------------|
F|----3-3p0---0-3-3p0------------|
C|-2--------2--------3p2p0-------|
G|-2--------2--------------------|
C|-2--------2----------------5-3-|

D|------------------|
A|------------------|
F|---3-3p0---0-3-0~-|
C|-2-------2--------|
G|-2-------2--------|
C|-2-------2--------| (muting the strings between the played notes is good too)

D|-----------------------|
A|-----------------------|
F|-----------------------|
C|-2----22-2--0-3p2p0----|
G|-2----22-2-------------|
C|-2----22-2---------5-3-|x3

D|------------------|
A|------------------|
F|------------------|
C|-2----22--8-8-8-\-|
G|-2----22--8-8-8-\-|
C|-2----22--8-8-8-\-|

D|--------------------|
A|--------------------|
F|-4-447-777-77-77-7\-|
C|-2-225-557-77-77-7\-|
G|-2-225-555-55-55-5\-|
C|-2-225-550-00-00-0--|x4

D|---------|
A|---------|
F|---3-33~-|
C|-2----2~-|
G|-2-------|
C|-2-------|

D|---------|
A|---------|
F|---3-30~-|
C|-2----2~-|
G|-2-------|
C|-2-------|

D|-----------------------|
A|-----------------------|
F|-----------------------|
C|-208080208080-3p2p0----|
G|-20808020808-----------|
C|-20808020808-------5-3-|x4

D|------------------|
A|------------------|
F|------------------|
C|-8-8-8-8-8-8-8-8\-|
G|-8-8-8-8-8-8-8-8\-|
C|-8-8-8-8-8-8-8-8\-|

D|--------------------|
A|--------------------|
F|-4~---7~---7~-------|
C|-2~---5~---7~-------|
G|-2~---5~---5~-------|
C|-2~---5~---0~-------|x2

D|--------------------|
A|--------------------|
F|-4-447-777-77-77-7\-|
C|-2-225-557-77-77-7\-|
G|-2-225-555-55-55-5\-|
C|-2-225-550-00-00-0--|x2

D|--------------------|
A|--------------------|
F|-4-447-777-77-77-7\-|
C|-2-225-557-77-77-7\-|
G|-2-225-555-55-55-5\-|
C|-2-225-550-00-00-0--|x2 (let ring)

D|-----------------------|
A|-----------------------|
F|-----------------------|
C|-208080208080-3p2p0----|
G|-20808020808-----------|
C|-20808020808-------5-3-|x4

D|------------------------|
A|------------------------|
F|------------------------|
C|-2-X-XX-22-2-0-3p2p0----|
G|-2-X-XX-22-2------------|
C|-2-X-XX-22-2--------5-3-|x3

D|----------------|
A|----------------|
F|----3-3p0---0-3-|
C|-2--------2-----|
G|-2--------2-----|
C|-2--------2-----| ::feedback::

That is it. Feedback is most welcome; I havn't been tabbing for long. Positive and 
are appreciated. Have fun
            
Submit corrections

comments powered by Disqus
↑ Back to top | Zico Chain Tabs for Where Would You Rather Be. Lyrics for acoustic guitar and electric guitar. Tablatures and chords are parodies/interpretations of the original songs. You may use it for private study, scholarship, research or language learning purposes only