» » »

Where Would You Rather Be Tabs (ver.3)

Artists:  A B C D E F G H I J K L M N O P Q R S T U V W X Y Z # 

Where Would You Rather Be Tabs (ver.3)

Zico Chain
Rating:
3/5 (1 vote)

Tabs too difficult? Try these video lessons and learn fast.
                -------------------------------------------------------------------------------
                             Where Would You Rather Be? - Zico Chain
-------------------------------------------------------------------------------
write the song) but it sounds pretty accurate!

Tuning: Drop D

Intro and Main Riff:
E|------------------------------------------   ------------------------------|
B|------------------------------------------   ------------------------------|
G|------------------------------------------   -----------------7b-----------|
d|-----6--6--------6--6---------------------   -----6--6-----6--6b-----------|
A|-----------8-----------8---6p5------------ X3-----------8------------------|
D|--0-----------0----------------6--3--1p0--   --0---------------------------|

Verse 1 (0:19)
E|----------------------   ---------|----------------------------------------|
B|----------------------   ---------|----------------------------------------|
G|----------------------   ---------|----------------------------------------|
d|----------------------   ---------|-----6--6--------6--6-------------------|
A|--0-00-0-6p5---------- X3--0-00-0-|-----------8-----------8--6p5-----------| X4
D|--0-00-0-----6--3--1p-   --0-00-0-|--0-----------0---------------6--3--1p0-|

E|------------|
B|------------|
G|------------|
d|--6--6--6/--|
A|--6--6--6/--|
D|--6--6--6/--|

Chorus (0:49)
E|------------------------   ---------------------|
B|------------------------   ---------------------|
G|------------------------   ---------------------|
d|-------------5-55-5-55\-   -------------5-5-5-5-|
A|--0-0-2/3-33-3-33-3-33\- X3--0-0-2/3-33-3-3-3-3-|
D|--0-0-2/3-33------------   --0-0-2/3-33---------|

After-Chorus 1 (1:04)
E|--------------------------------------------------------------|
B|--------------------------------------------------------------|
G|-----------------------------------------------------------7b-|
d|-----6--6-------6--6------------------------6--6--------6--6b-|
A|-----------8----------8--6p5----------------------8-----------| X2
D|--0-----------0--------------6--3--1p0---------------0--------|


Verse 2 (1:18)
E|----------------------   ---------|
B|----------------------   ---------|
G|----------------------   ---------|
d|----------------------   ---------|
A|--0-00-0-6p5---------- X3--0-00-0-|
D|--0-00-0-----6--3--1p-   --0-00-0-|

E|------------|
B|------------|
G|------------|
d|--6--6--6/--|
A|--6--6--6/--|
D|--6--6--6/--|

Chorus (1:32)

After-Chorus 2 (1:46)

E|-----------------------|
B|-----------------------|
G|-------------------7b--|
d|--6--6-------6--6------|
A|--------8b-------------|
D|-----------------------|

Then (1:53)
E|--------------------------------|
B|--------------------------------|
G|--------------------------------|
d|--6-6-3-0-6-6-3-----------------|X8
A|--6-6-3-0-6-6-3--6p5------------|
D|--6-6-3-0-6-6-3------6--3--1p0--|
The first 4 times are either muted or distorted, then it becomes clean.

(2:21)
E|--------------------|
B|--------------------|
G|--------------------|
d|--6-6-6-6-6-6-6-6/--|
A|--6-6-6-6-6-6-6-6/--|
D|--6-6-6-6-6-6-6-6/--|

(2:25)
E|-----------------------------|
B|-----------------------------|
G|-----------------------------|
d|--12--14--11---12--14--10----|
A|--12--14--11---12--14--10----|
D|--12--14--11---12--14--10----|

Chorus 3 (2:32)
E|---------------------------------------------|
B|---------------------------------------------|
G|---------------------------------------------|
d|-------------5-55-5-55\--------------5-5-5-5-|
A|--0-0-2/3-33-3-33-3-33\---0-0-2/3-33-3-3-3-3-|
D|--0-0-2/3-33--------------0-0-2/3-33---------|
Then strum the power chords used in the chorus without the slides

Outro (2:54)
E|--------------------------------|
B|--------------------------------|
G|--------------------------------|
d|--6-6-3-0-6-6-3-----------------|X4
A|--6-6-3-0-6-6-3--6p5------------|
D|--6-6-3-0-6-6-3------6--3--1p0--|

E|--------------------------|
B|--------------------------|
G|--------------------------|
d|--0-xxx-0-----------------|
A|--0-xxx-0--6p5------------|
D|--0-xxx-0------6--3--1p0--|

Ends:
E|-----------------||
B|-----------------||
G|-----------------||
d|--6--x--6--------||
A|-----------8-----||
D|--------------0--||


| /  slide up
| \  slide down
| p  pull-off
| x  Mute note
| b  Bend note
===============================================================================
            
Tabs too difficult? Try these video lessons and learn fast.


comments powered by Disqus
↑ Back to top | Tablatures and chords are parodies/interpretations of the original songs. You may use it for private study, scholarship, research or language learning purposes only