>
 >
Sabihin 1

Sabihin 1 Guitar Tabs

Zelle - Sabihin 1 chords, tabs, tablatures, lyrics

Guitar lessons | Add/correct | Request | Top 50 tabs Artists:  A B C D E F G H I J K L M N O P Q R S T U V W X Y Z 0-9

Sabihin 1 Guitar Tabs – Zelle

CD, Sheet music, Poster

Do you like Sabihin 1? Share with your friends now
ChordsChords v2Chords v3TabsTabs v2Ukulele
song title:sabihin
band/artist:zelle

.,thanks to kuya ensoy montejo for most of the chords and its patterns to make this tab.thanks,.=)

Tuning:standard

| /  slide up
| \  slide down
| h  hammer-on
| p  pull-off
| ~  let ring
| +  harmonic
| x  Mute note

 intro:
 guitar 1:clean (harmonics)
 repeat the 1st section 11 times then end with the 2nd section
e|-----------|-------------|
B|--12-------|--12---------|
G|-----12----|--------12---|
D|----9--12--|----9-12-----|
A|-----------|-------------|
E|-----------|-------------|
     ++ + +      ++  + +
 guitar 2:violin
 after guitar 1's 4th measure
 repeat the 1st section 3x the end with the 2nd section
e|----------14-15-17-15-14--|----------14-15-17-15-14-----|
B|--12-13-12----------------|--12-13-12--------------12~~-|
G|--------------------------|-----------------------------|
D|--------------------------|-----------------------------|
A|--------------------------|-----------------------------|
E|--------------------------|-----------------------------|

 guitar 3:clean
 repeat 2 times
 listen to the song for the timing
e|---0~~---|
B|---0~~---|
G|---0~~---|
D|---2~~---|
A|---2~~---|
E|---0~~---|

 verse: 4x
 guitar 1:clean
      Em       C
e|--0000000-0000000---|
B|--0000000-1111111---|
G|--0000000-0000000---|
D|--2222222-2222222---|
A|--2222222-3333333---|
E|--0000000-----------|

 chorus: 2x
 guitar 1:clean
       Em        G6        D           C
e|--000-00000-000-00000-222-22222-000000000000---|
B|--000-00000-000-00000-333-33333-111111111111---|
G|--000-00000-000-00000-222-22222-000000000000---|
D|--222-22222-000-00000-000-00000-222222222222---|
A|--222-22222-222-22222-000-00000-333333333333---|
E|--000-00000-333-33333-000-00000----------------|

 guitar 2:violin
e|----------------------------------------------------------------|
B|----------------------------------------------------------------|
G|------11h12~----12p11~------------------------------------------|
D|--14~------12~---------12~--10-10-10-10--12-10-10-12-10-10-14~--|
A|----------------------------------------------------------------|
E|----------------------------------------------------------------|
 
e|----------------------------------------------------|
B|----------------------------------------------------|
G|--11h12~-------12p11~-------------------------------|
D|--------12~-----------12~--10-10-10-10--10-10-10----|
A|----------------------------------------------------|
E|----------------------------------------------------|

 pre-verse:
 guitar 1:
 listen to the song for the timing
e|----------------0~-----------------------------|
B|----------------0~-----------------------------|
G|----------------0~-----------------------------|
D|----------------2~-----------------------------|
A|----------------2~-----------------------------|
E|----------------0~-----------------------------|

 guitar 2:violin
 repeat the 1st section 3 times then end with the 2nd section
e|--19-14-15-----|---19-14-15-14-------|
B|-----------17--|---------------17~~--|
G|---------------|---------------------|
D|---------------|---------------------|
A|---------------|---------------------|
E|---------------|---------------------|

 verse 2: 4x
 guitar 1:clean
      Em       C
e|--0000000-0000000---|
B|--0000000-1111111---|
G|--0000000-0000000---|
D|--2222222-2222222---|
A|--2222222-3333333---|
E|--0000000-----------|

 guitar 2:lush effect
 repeat the 1st section 7 times then end with the 2nd section
e|---2~~~---------|----2---2----|
B|--0-------------|---0-0-0-0---|
G|----------------|--0---0---0--|
D|----------------|-------------|
A|----------------|-------------|
E|----------------|-------------|

 chorus: 2x
 guitar 1:clean
       Em        G6        D           C
e|--000-00000-000-00000-222-22222-000000000000---|
B|--000-00000-000-00000-333-33333-111111111111---|
G|--000-00000-000-00000-222-22222-000000000000---|
D|--222-22222-000-00000-000-00000-222222222222---|
A|--222-22222-222-22222-000-00000-333333333333---|
E|--000-00000-333-33333-000-00000----------------|

 guitar 2:violin
e|----------------------------------------------------------------|
B|----------------------------------------------------------------|
G|------11h12~----12p11~------------------------------------------|
D|--14~------12~---------12~--10-10-10-10--12-10-10-12-10-10-14~--|
A|----------------------------------------------------------------|
E|----------------------------------------------------------------|
 
e|----------------------------------------------------|
B|----------------------------------------------------|
G|--11h12~-------12p11~-------------------------------|
D|--------12~-----------12~--10-10-10-10--10-10-10----|
A|----------------------------------------------------|
E|----------------------------------------------------|
 
 pre-bridge
 guitar 1:clean
 repeat throughout this section
e|--000-000000--|
B|--000-000000--|
G|--000-000000--|
D|--222-222222--|
A|--222-222222--|
E|--000-000000--|
 
 guitar 2:violin
 repeat the 1st section 3x the end with the 2nd section
e|----------14-15-17-15-14--|----------14-15-17-15-14-----|
B|--12-13-12----------------|--12-13-12--------------12~~-|
G|--------------------------|-----------------------------|
D|--------------------------|-----------------------------|
A|--------------------------|-----------------------------|
E|--------------------------|-----------------------------|

 bridge:
 guitar 2:clean
 repeat 2 times
 listen to the song for the timing
e|--0~~-------0~~---------|
B|--0~~-------1~~---------|
G|--0~~-------0~~---------|
D|--2~~-------2~~---------|
A|--2~~-------3~~---------|
E|--0~~-------------------|

 guitar 1:clean (harmonics)
 repeat the 1st section 6 times then:
e|----------|-------------------------------|
B|-12-------|-12-12----------12-12----------|
G|----12----|--------12-12----------12-12---|
D|---9--12--|------9------9-------9------9--|
A|----------|-------------------------------|
E|----------|-------------------------------|
    ++ + +     +  ++  +  ++   +  ++  +  ++
 repeat the 1st section 4 times then end with the 2nd section
e|-----------|-------------|
B|--12-------|--12---------|
G|-----12----|--------12---|
D|----9--12--|----9-12-----|
A|-----------|-------------|
E|-----------|-------------|
     ++ + +      ++  + +
 guitar 1:clean
 repeat 2 times
e|--0~~-------0~~---------|
B|--0~~-------1~~---------|
G|--0~~-------0~~---------|
D|--2~~-------2~~---------|
A|--2~~-------3~~---------|
E|--0~~-------------------|
 
 breakdown
 guitar 1:clean
 repeat throughout this section
e|--000-000000--|
B|--000-000000--|
G|--000-000000--|
D|--222-222222--|
A|--222-222222--|
E|--000-000000--|

 guitar 2:violin
 repeat the 1st section 2 times then end with th 2nd section
e|-----------------|---------------12~~~~~~---12-12--|
B|-12~h13~~~12~~~--|-12~h13~~~12~~~------------------|
G|-----------------|---------------------------------|
D|-----------------|---------------------------------|
A|-----------------|---------------------------------|
E|-----------------|---------------------------------|

 guitar 1:clean
 repeat 2 times 
     Em       C
e|--0000000-0000000---|
B|--0000000-1111111---|
G|--0000000-0000000---|
D|--2222222-2222222---|
A|--2222222-3333333---|
E|--0000000-----------|

 guitar 2:violin
 repeat 2 times
e|------------------------|
B|------------------------|
G|------------------------|
D|-14~~16~17~--------16~~-|
A|-----------15~14~17~----|
E|------------------------|

 chorus: 2x
 guitar 1:clean
       Em        G6        D           C
e|--000-00000-000-00000-222-22222-000000000000---|
B|--000-00000-000-00000-333-33333-111111111111---|
G|--000-00000-000-00000-222-22222-000000000000---|
D|--222-22222-000-00000-000-00000-222222222222---|
A|--222-22222-222-22222-000-00000-333333333333---|
E|--000-00000-333-33333-000-00000----------------|

 guitar 2:violin
e|----------------------------------------------------------------|
B|----------------------------------------------------------------|
G|------11h12~----12p11~------------------------------------------|
D|--14~------12~---------12~--10-10-10-10--12-10-10-12-10-10-14~--|
A|----------------------------------------------------------------|
E|----------------------------------------------------------------|
 
e|----------------------------------------------------|
B|----------------------------------------------------|
G|--11h12~-------12p11~-------------------------------|
D|--------12~-----------12~--10-10-10-10--10-10-10----|
A|----------------------------------------------------|
E|----------------------------------------------------|
 
 outro:
 guitar 1:clean
 repeat throughout this section
e|--000-000000--|
B|--000-000000--|
G|--000-000000--|
D|--222-222222--|
A|--222-222222--|
E|--000-000000--|

 guitar 2:violin
 repeat the 1st section 3 times then end with the 2nd section
e|--19-14-15-----|---19-14-15-14-------|
B|-----------17--|---------------17~~--|
G|---------------|---------------------|
D|---------------|---------------------|
A|---------------|---------------------|
E|---------------|---------------------|

 guitar 1:clean
 let ring
e|--0--|
B|--0--|
G|--0--|
D|--2--|
A|--2--|
E|--0--|

.,that's it.thanks to kuya ensoy montejo again.thank you talaga.=),.





Comments


Popular Zelle tabs & chords
Ayoko Na Sana Chords
Far Away Chords
In A Lovers Eye Chords
Light Chords
Province Chords
Sabihin 1 Chords
True Chords
Wake Chords
War Chords
Hindi Na Sana Ukulele


Song lyrics



↑ Back to top | Tablatures and chords are parodies/interpretations of the original songs. You may use it for private study, scholarship, research or language learning purposes only
© 2014 AZChords.com Contact us | Privacy policy | DMCA | Add/correct tabs | Request tabs | Top 50 tabs