» » »

Zelle, Sabihin Tabs (ver.1)

Artists:  A B C D E F G H I J K L M N O P Q R S T U V W X Y Z # 

Sabihin Tabs (ver.1)

Zelle Tabs
Rating:
5/5 (1 vote)
Sabihin lessons Tabs too difficult? Try these video lessons and learn fast
                

NOTE: i converted the violin parts in the song to guitar 1
      i also simplified the tabs
      i hope ya'll like it
      i know i'm handsome.. ^^,

Tuning: E-A-D-G-B-e

Tablature Legend
0-open string
~-let it ring
T-tap


Intro:

Guitar 1
e|-----------5-7-5-4-|
B|--3-4-3-1----------|
G|-------------------| (continue 4x until drum pattern intro finishes)
D|-------------------|
A|-------------------|
E|-------------------|

Guitar 2 - Silent

Verse 1:

Guitar 1 - Silent

Guitar 2 (do strumming)
     Em    C
e|--0000--0000--|
B|--0000--1111--|
G|--0000--0000--| (do chord pattern 4x)
D|--2222--2222--|
A|--2222--3333--|
E|--0000--------|

bakit wala ka pa...

Chorus:

Guitar 1
e|------------------------------------------0~--|
B|----------------------------1-3-1-1-3-1-1-----|
G|----------------------------------------------|
D|----------------------------------------------|
A|----------------------------------------------|
E|----------------------------------------------|

Guitar 2
     Em    G6    D     C         C
e|--0000--0000--0000--0000------0000------------|
B|--0000--0000--0000--1111------1111------------|
G|--0000--0000--0000--0000------0000------------|
D|--2222--0000--7777--2222------2222------------|
A|--2222--2222--5555--3333------3333------------|
E|--0000--3333----------------------------------|

sabihin mo na kung babalik ka pa...

Guitar 2
     Em    G6    D     C         C
e|--0000--0000--0000--0000------0000------------|
B|--0000--0000--0000--1111------1111------------|
G|--0000--0000--0000--0000------0000------------|
D|--2222--0000--7777--2222------2222------------|
A|--2222--2222--5555--3333------3333------------|
E|--0000--3333----------------------------------|

sabihin mo na kung aayaw ka na...

Intro:

Guitar 1
e|-----------5-7-5-4-|
B|--3-4-3-1----------|
G|-------------------| (4x)
D|-------------------|
A|-------------------|
E|-------------------|

Guitar 2 - Silent

Verse 2:

Guitar 1 - Silent

Guitar 2 (do strumming)
     Em    C
e|--0000--0000--|
B|--0000--1111--|
G|--0000--0000--| (do chord pattern 4x)
D|--2222--2222--|
A|--2222--3333--|
E|--0000--------|

naririnig mo ba ako?...

Chorus:

Guitar 1
e|------------------------------------------0~--|
B|----------------------------1-3-1-1-3-1-1-----|
G|----------------------------------------------|
D|----------------------------------------------|
A|----------------------------------------------|
E|----------------------------------------------|

Guitar 2
     Em    G6    D     C         C
e|--0000--0000--0000--0000------0000------------|
B|--0000--0000--0000--1111------1111------------|
G|--0000--0000--0000--0000------0000------------|
D|--2222--0000--7777--2222------2222------------|
A|--2222--2222--5555--3333------3333------------|
E|--0000--3333----------------------------------|

sabihin mo na kung babalik ka pa...

Guitar 2
     Em    G6    D     C         C
e|--0000--0000--0000--0000------0000------------|
B|--0000--0000--0000--1111------1111------------|
G|--0000--0000--0000--0000------0000------------|
D|--2222--0000--7777--2222------2222------------|
A|--2222--2222--5555--3333------3333------------|
E|--0000--3333----------------------------------|

sabihin mo na kung aayaw ka na...

Adlib:

Guitar 1
     Em    Em
e|--0000--0000--|
B|--0000--0000--|
G|--0000--0000--| (2x)
D|--2222--2222--|
A|--2222--2222--|
E|--0000--0000--|

Guitar 2
e|-----------5-7-5-4-|
B|--3-4-3-1----------|
G|-------------------| (4x)
D|-------------------|
A|-------------------|
E|-------------------|

(hold)
Guitar 1
    Em       C
e|--0--------0--------|
B|--0--------1--------|
G|--0-(~)----0-(~)----|
D|--2--------2--------|
A|--2--------3--------|
E|--0-----------------|

iiyak na lang...

Guitar 1
     Em    Em            C        C
e|--0000--0000--|      |-0--------0--------|
B|--0000--0000--|      |-1--------1--------|
G|--0000--0000--| (2x) |-0--(T)---0--(T)---|
D|--2222--2222--|      |-2--------2--------|
A|--2222--2222--|      |-3--------3--------|
E|--0000--0000--|      |-------------------|

heyy.. yiii.. yeeahhh...

Guitar 2
     Em    Em            C        C
e|--0000--0000--|      |-0--------0--------|
B|--0000--1111--|      |-1--------1--------|
G|--0000--0000--| (2x) |-0--(T)---0--(T)---|
D|--2222--2222--|      |-2--------2--------|
A|--2222--3333--|      |-3--------3--------|
E|--0000--------|      |-------------------|

bakit wala ka pa..


Chorus:

Guitar 1
e|------------------------------------------0~--|
B|----------------------------1-3-1-1-3-1-1-----|
G|----------------------------------------------|
D|----------------------------------------------|
A|----------------------------------------------|
E|----------------------------------------------|

Guitar 2
     Em    G6    D     C         C
e|--0000--0000--0000--0000------0000------------|
B|--0000--0000--0000--1111------1111------------|
G|--0000--0000--0000--0000------0000------------|
D|--2222--0000--7777--2222------2222------------|
A|--2222--2222--5555--3333------3333------------|
E|--0000--3333----------------------------------|

sabihin mo na kung babalik ka pa...

Guitar 2
     Em    G6    D     C         C
e|--0000--0000--0000--0000------0000------------|
B|--0000--0000--0000--1111------1111------------|
G|--0000--0000--0000--0000------0000------------|
D|--2222--0000--7777--2222------2222------------|
A|--2222--2222--5555--3333------3333------------|
E|--0000--3333----------------------------------|

sabihin mo na kung aayaw ka na...

Intro:

Guitar 1
e|-----------5-7-5-4-|
B|--3-4-3-1----------|
G|-------------------| (4x)
D|-------------------|
A|-------------------|
E|-------------------|

Guitar 2 - Silent

Guitar 2 - end in Em~


alryt.. ^^, ..nice song by zelle, another great indie band..
ds tab is 4 you pikAchie kO.. hehe.. lub yAh.. toinks..
            

comments powered by Disqus
↑ Back to top | Zelle Tabs for Sabihin. Lyrics for acoustic guitar and electric guitar. Tablatures and chords are parodies/interpretations of the original songs. You may use it for private study, scholarship, research or language learning purposes only