» » »

Zeke, Highway Star Tabs (ver.1)

Artists:  A B C D E F G H I J K L M N O P Q R S T U V W X Y Z # 

Highway Star Tabs (ver.1)

Zeke Tabs
Rating:
0/5 (0 votes)
Hard to play? Try these video lessons and learn fast.
                highway star


zeke with pearl jam







eb:---------------------------------------------------|
Bb:---------------------------------------------------|
Gb:---------------------------------------------------|
Db:-55555555--101010101010--55555555555---------------|
Ab:-33333333--8-8-8-8-8-8---33333333333--666666-33333-|
Eb:--------------------------------------444444-11111-|

verse
eb:---------------------------------------------------|
Bb:---------------------------------------------------|
Gb:---------------------------------------------------|
Db:-55555555--101010101010--55555555555---------------|
Ab:-33333333--8-8-8-8-8-8---33333333333--666666-33333-|
Eb:--------------------------------------444444-11111-|


 wohhhh ohhh ohh on the highway 
eb:------------------------------|
Bb:------------------------------|
Gb:------------------------------|
Db:-5555555--------88888--33333--|
Ab:-3333333-66666--66666--11111--|
Eb:---------44444----------------|

     
:-------------------------------------------------|
:-------------------------------------------------|
:-------------------------------------------------|
:-------------------------------------------------|
:--10-10--7--10-10--7--10-10--7--10-10--7--13-13--|
:--8--8---5--8--8---5--8--8---5--8--8---5--11-11--|


:-----------------------------------------------------------------------------|
:---------10-12-10~~-10-10---10-12-10~~-10-10---10-12-10~~-10-10---10-12-10~~-|
:---------10-12-10~~-10-10---10-12-10~~-10-10---10-12-10~~-10-10---10-12-10~~-|
:-10-10~~------------10-10~~------------10-10~~------------10-10~~------------|
:-----------------------------------------------------------------------------|
:-----------------------------------------------------------------------------|

solo
:-----------------------------------------------|
:-11b---8h11p8----8-----------------------------|
:--------------11---8h10p8----8-----------------|
:--------------------------10---10-8h10p8-------|
:-----------------------------------------------|
:-----------------------------------------------|

53 secs of the song
            

comments powered by Disqus
↑ Back to top | Zeke Tabs for Highway Star. Lyrics for acoustic guitar and electric guitar. Tablatures and chords are parodies/interpretations of the original songs. You may use it for private study, scholarship, research or language learning purposes only