» » »

Zeke, Highway Star Tabs (ver.2)

Artists:  A B C D E F G H I J K L M N O P Q R S T U V W X Y Z # 

Highway Star Tabs (ver.2)

Zeke Tabs
Rating:
0/5 (0 votes)
Highway Star lessons Tabs too difficult? Try these video lessons and learn fast
                

tune 2 steps down
       
slide with hands                  
Eb|----------------------------------------------------------------------------------------|
Bb|----------------------------------------------------------------------------------------|
F#|----------------------------------------------------------------------------------------|
C#|----------------------------------------------------------------------------------------|
G#|--X\--------------------------------------------5-5-5-5------------------5-------5------|
C#|--X\-------0--0-0--0--0-0-0-0--3--0-0-0--5-6-7----------0--0-0--0--0-0-0---7-6-5---7-6--|

verse
Eb|------------------------------------------------------------------------------|
Bb|------------------------------------------------------------------------------|
F#|------------------------------------------------------------------------------|
C#|------------------------------------------------------------------------------|
G#|--------------------------------------5-5-5-5------------------5-------5------|
C#|-0--0-0--0--0-0-0-0--3--0-0-0--5-6-7----------0--0-0--0--0-0-0---7-6-5---7-6--|


Eb|-------------------------------------------------------------------------------------|
Bb|-------------------------------------------------------------------------------------|
F#|-------------------------------------------------------------------------------------|
C#|-2--2-2-2-2-2-2--2--2-2-2-2-2-2-2--2--2-2-2-2-2-2--2--2-2-2-2-2-2-2------------------|
G#|-0--0-0-0-0-0-0--0--0-0-0-0-0-0-0--0--0-0-0-0-0-0--0--0-0-0-0-0-0-0------------------|
C#|---------------------------------------------------------------------3-5--3-3-5-4-3--|


Eb|------------------------------------------------------------------------------|
Bb|------------------------------------------------------------------------------|
F#|------------------------------------------------------------------------------|
C#|------------------------------------------------------------------------------|
G#|--------------------------------------5-5-5-5------------------5-------5------|
C#|-0--0-0--0--0-0-0-0--3--0-0-0--5-6-7----------0--0-0--0--0-0-0---7-6-5---7-6--|


Eb|--------------------------------|
Bb|--------------------------------|
F#|--------------------------------|
C#|--------------------------------|
G#|-2---5---7----------------------|
C#|-0---3---5----------------------|

Eb|----------------------------------------------|
Bb|----------------------------------------------|
F#|----------------------------------------------|
C#|----------------------------------------------|
G#|--------------------------------------5-5-5-5-|
C#|-0--0-0--0--0-0-0-0--3--0-0-0--5-6-7----------|

Eb|--------------------------------|
Bb|--------------------------------|
F#|--------------------------------|
C#|--------------------------------|
G#|-2---5---7----------------------|
C#|-0---3---5----------------------|

it only had 54 secs of the song so...
            

comments powered by Disqus
↑ Back to top | Zeke Tabs for Highway Star. Lyrics for acoustic guitar and electric guitar. Tablatures and chords are parodies/interpretations of the original songs. You may use it for private study, scholarship, research or language learning purposes only