» » »

Zebrahead, Real Me Bass tabs (ver.1)

Artists:  A B C D E F G H I J K L M N O P Q R S T U V W X Y Z # 

Real Me Bass tabs (ver.1)

Zebrahead Tabs
Rating:
0/5 (0 votes)
Real Me lessons Tabs too difficult? Try these video lessons and learn fast
                "(1)

Key:
(P) = pop

Riff 1:

G -----------------------------------------------------------------------------------------------
D ----(P)-2------------------------------(P)2------------------------------------------------
A --------------3-2--2-2-2-2-2----------------3-2--(P)2-(P)2-(P)2-(P)2------------
E -0----------------------------------0---------------------------------------------------------

Riff 2:

G ----------------------------------------------------------------------
D ----------------------------------------------------------------------
A -----------------------------------------------------------------------
E -5-5---5-0-0---0-5-5---5-0-0---0-5-5---5-0-0--0-5-------

Riff 3: 

G --------------------------------------------------------------
D --------------------------------------------------------------
A --------------------------------------------------------------
E -8-8-8-8--10-10-10-10--3-3-3-3--7-7-7-7-------

Riff 4:

G -----------------------------------
D -----------------------------------
A ------------------------------------
E -8-8-8-8--10-10-10-10-----

Riff 5:

G -----------------------------------------------------------------
D ------------------------------------------------------------------
A -----3-2------3-2------3-2-----3-2--2-2-2-2-2-2-2-----
E -0---------0---------0--------0--------------------------------





Order:

Riff 1 x 3
Riff 2 x 1
Riff 1 x 2
Riff 3 x 4
Riff 4 x 1
Riff 1 x 3
Riff 2 x 1
Riff 3 x 9
Riff 4 x 1
Riff 5 x 1
Riff 3 x 4
Riff 4 x 1
Riff 1 x 3
Riff 2 x 1
Riff 3 x 9
Riff 4 x 1
"            
Submit corrections

comments powered by Disqus
↑ Back to top | Zebrahead Bass for Real Me. Lyrics for acoustic guitar and electric guitar. Tablatures and chords are parodies/interpretations of the original songs. You may use it for private study, scholarship, research or language learning purposes only