» » »

Zebrahead, Rescue Me Tabs (ver.1)

Artists:  A B C D E F G H I J K L M N O P Q R S T U V W X Y Z # 

Rescue Me Tabs (ver.1)

Zebrahead Tabs
Rating:
0/5 (0 votes)
Rescue Me lessons Tabs too difficult? Try these video lessons and learn fast
                Tuning: Standard

Listen to the song for rhythm

Intro x5
E|------------------
B|------------------
G|--11-------9---7--
D|--11---7---9---7--
A|---9---7---7---5--
E|-------5----------

end intro on:
E|-----------
B|-----------
G|-----------
D|--4-2---4--
A|--4-2---4--
E|--2-0---2--

Verse 4x –- Palm mute -- only play 2nd part of verses
E|-----------------
B|-----------------
G|----------9---7--
D|--4---7---9---7--
A|--4---7---7---5--
E|--2---5----------

Pre-Chorus x2
E|-----------------------------------------------------------------------------
B|-----------------------------------------------------------------------------
G|-----------------------------------------------------------------------------
D|-11-11--11-11-11--11---------------------------------------------------------
A|--------------------12-12--12-12-12--12--------------------------------------
E|---------------------------------------12-12--12-12-12--12--10-10--10-10-10--

Chorus x2 
E|-----------------
B|-----------------
G|------7-------9--
D|--4---7---7---9--
A|--4---5---7---7--
E|--2-------5------

Then play:
Intro (1:05 – 1:15)
Verse (1:25 – 1:35)
Pre-Chorus (1:36 – 1:44)
Chorus (1:45 – 2:05)

(2:05 – 2:25) keep playing this:
E|------------------------------
B|------------------------------
G|------------------------------
D|--4-4---4-4-4---4-4-4--2-222--
A|--4-4---4-4-4---4-4-4--2-222--
E|--2-2---2-2-2---2-2-2--0-000--

Intro (2:26 – 2:39)
Chorus (2:40 – 2:59)
Intro (3:00 – 3:17)

Notes: MFZB.
            

comments powered by Disqus
↑ Back to top | Zebrahead Tabs for Rescue Me. Lyrics for acoustic guitar and electric guitar. Tablatures and chords are parodies/interpretations of the original songs. You may use it for private study, scholarship, research or language learning purposes only