>
 >
Photographs

Photographs Guitar Tabs

Zebrahead - Photographs chords, tabs, tablatures, lyrics

Guitar lessons | Add/correct | Request | Top 50 tabs Artists:  A B C D E F G H I J K L M N O P Q R S T U V W X Y Z 0-9

Photographs Guitar Tabs – Zebrahead

CD, Sheet music, Poster

Do you like Photographs? Share with your friends now
TabsTabs v2
Zebrahead
"Photographs"
Purevolume Demo

Tuning:Standard


well i first listened to this song and it was awesome so i decided that since no one 
had tabbed it then i would and i did it within a couple of hours, and i figured the other 
fans would appreciate a tab for it, so i'll make this short and sweet


Intro
Guitar 1(x4)
E|---------------------------------||
B|---------------------------------||
G|---------2-----5-----------------||
D|---2-3-----3-----3---2---3-5-3-2-||
A|-0-----0-----0-----0---0---------||
E|---------------------------------||
Guitar 2-comes in with the drum roll
E|------------------||
B|------------------||
G|-5~---------------||
D|-x----------------||
A|-7~---------------||
E|-5~---------------||

Intro Part 2
Guitar 1(x4)
E|---------------------------------||
B|---------------------------------||
G|---------2-----5-----------------||
D|---2-3-----3-----3---2---3-5-3-2-||
A|-0-----0-----0-----0---0---------||
E|---------------------------------||
Guitar 2
E|-----------------------------------------------------||
B|-----------------------------------------------------||
G|-----------------------------------------------------||
D|-7-7-7-7-7-7-7-7-7-7-7-7-7-5-5-5-5-5-5-5-5-5-5-5-5-5-||
A|-7-7-7-7-7-7-7-7-7-7-7-7-7-5-5-5-5-5-5-5-5-5-5-5-5-5-||
E|-5-5-5-5-5-5-5-5-5-5-5-5-5-3-3-3-3-3-3-3-3-3-3-3-3-3-||

E|-----------------------------------------------------||
B|-----------------------------------------------------||
G|-7-7-7-7-7-7-7-7-7-7-7-7-7-5-5-5-5-5-5---------------||
D|-7-7-7-7-7-7-7-7-7-7-7-7-7-5-5-5-5-5-5-5-5-5-5-5-5-5-||
A|-5-5-5-5-5-5-5-5-5-5-5-5-5-3-3-3-3-3-3-2-2-2-2-2-2-2-||
E|-5-5-5-5-5-5-5-5-5-5-5-5-5---------------------------||

Verse
Guitar 1(x4)
E|------------------------------------------------------------------||
B|------------------------------------------------------------------||
G|-7-7x--7-7-7x--7-7-7x--7-7-7x--7-2-2x--2-2-2x--2-4-4x--4-4-4x--4x-||
D|-x-x---x-x-x---x-x-x---x-x-x---x-3-3x--3-3-3x--3-5-5x--5-5-5x--5x-||
A|-7-7x--7-7-7x--7-7-7x--7-7-7x--7-3-3x--3-3-3x--3-5-5x--5-5-5x--5x-||
E|-5-5x--5-5-5x--5-5-5x--5-5-5x--5-1-1x--1-1-1x--1-3-3x--3-3-3x--3x-||
Guitar 2
E|------------------------------------------------------------------||
B|------------------------------------------------------------------||
G|-------------------------------7-2-2x--2-2-2x--2-4-4x--4-4-4x--4x-||
D|-7x----------------------------x-3-3x--3-3-3x--3-5-5x--5-5-5x--5x-||
A|-7x----------------------------7-3-3x--3-3-3x--3-5-5x--5-5-5x--5x-||
E|-5x----------------------------5-1-1x--1-1-1x--1-3-3x--3-3-3x--3x-||
(x3)
E|------------------------------------------------------------------||
B|------------------------------------------------------------------||
G|-7-7x--7-7-7x--7-7-7x--7-7-7x--7-2-2x--2-2-2x--2-4-4x--4-4-4x--4x-||
D|-x-x---x-x-x---x-x-x---x-x-x---x-3-3x--3-3-3x--3-5-5x--5-5-5x--5x-||
A|-7-7x--7-7-7x--7-7-7x--7-7-7x--7-3-3x--3-3-3x--3-5-5x--5-5-5x--5x-||
E|-5-5x--5-5-5x--5-5-5x--5-5-5x--5-1-1x--1-1-1x--1-3-3x--3-3-3x--3x-||

Pre Chorus
Both Guitars
E|-------------------------------||
B|-------------------------------||
G|-2~------4~--------------------||
D|-3~------5~--------------------||
A|-3~------5~------(pickslide)---||
E|-1~------3~--------------------||

Chorus
Both Guitars(x2)
E|-------------------------------------------------------------------------------||
B|-------------------------------------------------------------------------------||
G|-5-5-5-5-5-5-5-5-5-2-2-2-2-2-2-2-2-2-7-7-7-7-7-7-7-7-7-7-----------------------||
D|-5-5-5-5-5-5-5-5-5-2-2-2-2-2-2-2-2-2-7-7-7-7-7-7-7-7-7-7-3-3-3-3-3-3-5-5-5-5-5-||
A|-3-3-3-3-3-3-3-3-3-0-0-0-0-0-0-0-0-0-5-5-5-5-5-5-5-5-5-5-3-3-3-3-3-3-5-5-5-5-5-||
E|---------------------------------------------------------1-1-1-1-1-1-3-3-3-3-3-||

Repeat Intro Part 2

Repeat Verse

Repeat Pre Chorus

Repeat Chorus

Bridge/Solo
Guitar 1
E|-15r13r12----15-15r13r12----15-15r13r12-----15r13r12----15-15r13r12----15-15r13r12-||
B|----------15-------------15-------------15-----------15-------------15-------------||
G|-----------------------------------------------------------------------------------||
D|-----------------------------------------------------------------------------------||
A|-----------------------------------------------------------------------------------||
E|-----------------------------------------------------------------------------------||
Guitar 2*it repeats its intro, but i am going to just put each chord at a time to show 
it changes with the solo to make the solo a little easier to understand
E|----------------||
B|----------------||
G|----------------||
D|-7>>>>>>>>------||
A|-7>>>>>>>>------||
E|-5>>>>>>>>------||
Guitar 1
E|-10r8r7----10-10r8r7-----10r8r7----10r8r7----10r8r7----8-||
B|--------10-----------10---------10--------10--------10---||
G|---------------------------------------------------------||
D|---------------------------------------------------------||
A|---------------------------------------------------------||
E|---------------------------------------------------------||
Guitar 2
E|----------------||
B|----------------||
G|----------------||
D|-5>>>>>>>>------||
A|-5>>>>>>>>------||
E|-3>>>>>>>>------||
Guitar 1
E|--------------------------------------||
B|-/17-17-/17-17-15--13h15-15-13-12--13-||
G|--------------------------------------||
D|--------------------------------------||
A|--------------------------------------||
E|--------------------------------------||
Guitar 2
E|----------------||
B|----------------||
G|-7>>>>>>>>------||
D|-7>>>>>>>>------||
A|-5>>>>>>>>------||
E|----------------||
Guitar 1
E|----------------------------------||
B|-12-----12--------------^---------||
G|----14-----14-12--10-9-10-9-7-5---||
D|-------------------.-.------------||
A|----------------------------------||
E|----------------------------------||
Guitar 2
E|-----------------||
B|-----------------||
G|-5>>>>-----------||
D|-5>>>>4>>>>------||
A|-3>>>>2>>>>------||
E|-----------------||

Solo Cont.
Guitar 1
E|------------------------------||
B|-8-8-10--------^--------------||
G|-9-9--9-9----7-7----7---------||
D|----------10-----10---10-7----||
A|------------------.--------10-||
E|------------------------------||
Guitar 2
E|----------------||
B|----------------||
G|----------------||
D|-7>>>>>>>>------||
A|-7>>>>>>>>------||
E|-5>>>>>>>>------||
Guitar 1
E|------------------------------||
B|-----10--------^----^---------||
G|-9-9----9----7-7----7---------||
D|-.-.------10-----10------10---||
A|------------------.-------.---||
E|------------------------------||
Guitar 2
E|----------------||
B|----------------||
G|----------------||
D|-5>>>>>>>>------||
A|-5>>>>>>>>------||
E|-3>>>>>>>>------||
Guitar 1
E|---------------------------------||
B|-----10--------------------------||
G|-9-9----9-10-/12-10-9-10-9-7-9-7-||
D|-.-.-----------------------------||
A|---------------------------------||
E|---------------------------------||
Guitar 2
E|----------------||
B|----------------||
G|-7>>>>>>>>------||
D|-7>>>>>>>>------||
A|-5>>>>>>>>------||
E|----------------||
Guitar 1
E|------------------------------------13h15-/17~~~-||
B|----------10-/13----15-15-13--13h15--------------||
G|-10-12-10-------14--16-16-14---------------------||
D|--.--.--.----------------------------------------||
A|-------------------------------------------------||
E|-------------------------------------------------||
Guitar 2
E|-----------------|-----|
B|-----------------|-----|
G|-5>>>>-----------|-2~--|
D|-5>>>>4>>>>------|-2~--|
A|-3>>>>2>>>>------|-0~--|
E|-----------------|-----|

Bridge Part 2
Both Guitars
E|-----------------------------------------------||
B|-----------------------------------------------||
G|-5~--------------------------------------------||
D|-x---------------------------------------------||
A|-7~------------3-3-3-3-3-3-3-3-5-5-5-5-5-5-5-5-||
E|-5~------------1-1-1-1-1-1-1-1-3-3-3-3-3-3-3-3-||
                 . . . . . . . . . . . . . . . .

Repeat Chorus

Repeat Intro Part 2

Ending
Both Guitars End On
E|----||
B|----||
G|----||
D|-7x-||
A|-7x-||
E|-5x-||

Song Structure:
Intro
Intro Part 2
Verse
Pre Chorus
Chorus
Intro Part 2
Verse
Pre Chorus
Chorus
Bridge/Solo
Bridge Part 2
Chorus
Intro Part 2
Ending





Comments


Popular Zebrahead tabs & chords
I Am 1 Bass Tabs
Im Money Bass Tabs
Let It Ride Bass Tabs
Strength Bass Tabs
Blur Tabs
Expectations 2 Tabs
Into You 1 Tabs
Oc Life Tabs
Rated U For Ugly 1 Tabs
Wake Me Up 1 Tabs


Song lyrics



↑ Back to top | Tablatures and chords are parodies/interpretations of the original songs. You may use it for private study, scholarship, research or language learning purposes only
© 2014 AZChords.com Contact us | Privacy policy | DMCA | Add/correct tabs | Request tabs | Top 50 tabs