» » »

Zebrahead, Mind Trip Tabs (ver.1)

Artists:  A B C D E F G H I J K L M N O P Q R S T U V W X Y Z # 

Mind Trip Tabs (ver.1)

Zebrahead Tabs
 Rating:
4/5 (4 votes)
Mind Trip lessons Tabs too difficult? Try these video lessons and learn fast
1
                

e|-------10-10-12-12-10-------15-15-17-17-15--------------------------|
B|-12-12----------------12-12-----------------------------------------|
G|--------------------------------------------------------------------|
D|--------------------------------------------------------------------|
A|--------------------------------------------------------------------|
E|--------------------------------------------------------------------|

e|-------10-10-12-12-10-----------------------------------------------|
B|-12-12----------------10-10-8-10(bend)------------------------------|
G|--------------------------------------------------------------------|
D|--------------------------------------------------------------------|
A|--------------------------------------------------------------------|
E|--------------------------------------------------------------------|

e|--------------------------------------------------------------------|
B|--------------------------------------------------------------------|
G|--------------------------------------------------------------------|
D|--------------------------------------------------------------------|
A|--------------------------------------------------------------------|
E|-00-33-55-33-00-33-55-----------------------------------------------|

e|--------------------------------------------------------------------|
B|--------------------------------------------------------------------|
G|--------------------------------------------------------------------|
D|--------------------------------------------------------------------|
A|-2---2---2---2------------------------------------------------------|
E|-0---0---0---0------------------------------------------------------|

e|--------------------------------------------------------------------|
B|--------------------------------------------------------------------|
G|--------------------------------------------------------------------|
D|-55--------2----2----2----2-----------------------------------------|
A|-33-2222-00---00---00---00------------------------------------------|
E|----0000------------------------------------------------------------|
            
Submit corrections

comments powered by Disqus
↑ Back to top | Zebrahead Tabs for Mind Trip. Lyrics for acoustic guitar and electric guitar. 1 Tablatures and chords are parodies/interpretations of the original songs. You may use it for private study, scholarship, research or language learning purposes only