» » »

Hell Yeah Bass tabs (ver.1)

Artists:  A B C D E F G H I J K L M N O P Q R S T U V W X Y Z # 

Hell Yeah Bass tabs (ver.1)

Zebrahead
Rating:
0/5 (0 votes)

Hard to play? Try these video lessons and learn fast.
                			     HELL YEAH - Zebrahead



Tuning: Standard


Intro:

  Drums  Guitar  Bass!                  2x
G|-----|-------|-------------------------|
D|-----|-------|*-----------------------*|
A|--R--|---R---|*--------4-22-----------*|
E|-----|-------|-00-2-44------4-22222222-|
-

Verse 1:          
        4x                    3x  
G|-------|---------------------|------------------|
D|*-----*|*-------------------*|------------------|
A|*--R--*|*-----1111----------*|44444444-22222222-|
E|-------|-2222------2222-4444-|------------------|


Pre-Chorus:
                 3x
G|----------------|-------------------|
D|*--------------*|-------------------|
A|*----4444-2222-*|22222222-4444-6666-|
E|-0-0------------|-------------------|


Chorus:
                                                                        2x
G|-----------------------------------------------------------------------|
D|*---------------------------------------------------------------------*|
A|*6666666666--124-111111111111-421--444444444444--124---------------124*|
E|------------4--------------------4--------------4----444444444444-4----|


Pre-Verse:
                          2x                        
G|-------------------------|
D|*-----------------------*|
A|*--------4-22-----------*|
E|-00-2-44------4-22222222-|


Verse 2:          
        4x                    3x  
G|-------|---------------------|-------------------|
D|*-----*|*-------------------*|-------------------|
A|*--R--*|*-----1111----------*|-44444444-22222222-|
E|-------|-2222------2222-4444-|-------------------|


Pre-Chorus:
                 3x
G|----------------|-------------------|
D|*--------------*|-------------------|
A|*----4444-2222-*|22222222-4444-6666-|
E|-0-0------------|-------------------|


Chorus:
                                                                        2x
G|-----------------------------------------------------------------------|
D|*---------------------------------------------------------------------*|
A|*6666666666--124-111111111111-421--444444444444--124---------------124*|
E|------------4--------------------4--------------4----444444444444-4----|


Bridge:
                                                                                                2x
G|-------|-----------------|---------------------------------------------------------------------|
D|*-----*|-----------------|*-------------------------------------------------------------------*|
A|*--R--*|-----------------|*6666666666666666-1111111111111111-4444444444444444-----------------*|
E|-------|4444444444444444-|----------------------------------------------------4444444444444444-|


Post Solo:

G|-------|
D|*-----*|
A|*6666-*|
E|-------|


Chorus:
                                                                        2x
G|-----------------------------------------------------------------------|
D|*---------------------------------------------------------------------*|
A|*6666666666--124-111111111111-421--444444444444--124---------------124*|
E|------------4--------------------4--------------4----444444444444-4----|



Ending:
                          2x                        
G|-------------------------|
D|*-----------------------*|
A|*--------4-22-----------*|
E|-00-2-44------4-22222222-|




| /  slide up
| \  slide down
| h  hammer-on
| p  pull-off
| ~  vibrato
| +  harmonic
| x  Mute note



*There we go, my interpertation of Hell Yeah by Zebrahead. Hope you enjoyed playing it. 
 If you have any questions, my e-mail is at the top.
            
Hard to play? Try these video lessons and learn fast. | Correct




comments powered by Disqus
↑ Back to top | Tablatures and chords are parodies/interpretations of the original songs. You may use it for private study, scholarship, research or language learning purposes only