» » »

Zebrahead, Hello Tomorrow Tabs (ver.1)

Artists:  A B C D E F G H I J K L M N O P Q R S T U V W X Y Z # 

Hello Tomorrow Tabs (ver.1)

Zebrahead Tabs
 Rating:
4/5 (4 votes)
Hello Tomorrow lessons Tabs too difficult? Try these video lessons and learn fast
                This is my first tab, it really contains the intro and the chorus, which is really
the best bit in my opinion.

The site didn't have this tab so here it is on me.

Standard tuning

Intro... (palm muted)

E)----------------------------------------------------------------|
B)----------------------------------------------------------------|
G)----------------------------------------------------------------|
D)-----9----------------------------------------------------------|
A)-6---7----------9---------------9-------------------------------|
E)-4--------------7---------------6-------------------------------|

Hello Tomorrow...goodbye to yesterday

E)-----------------------------------------------------------------|
B)-----------------------------------------------------------------|
G)-----------------------------------------------------------------|
D)---------------------------9-------------------------------------|
A)-6-------------------------7-------------9---------------------9-|
E)-4---------------------------------------7---------------------6-|

We've been waiting for this moment, and we still don't know what to say

E)----------------------------------------------------------------|
B)----------------------------------------------------------------|
G)----------------------------------------------------------------|
D)---------------------------9------------------------------------|
A)-6-------------------------7-----9--------------9---------------|
E)-4-------------------------------7--------------6---------------|

We may never find the answers, or know the reason why

E)----------------------------------------------------------------|
B)----------------------------------------------------------------|
G)----------------------------------------------------------------|
D)---------------------------9 (hit this fifth chord once)--------|
A)-6-------------------------7------------------------------------|
E)-4--------------------------------------------------------------|


Why we both decided we should say goodbye


then drum roll and into the same chord progression twice, without palm mute.

Then comes the speed rap sort of bit that seems somewhat traditional with zebrahead,
its quite good in this song though. I think the same fifths are used in the rap bit
but in a different strumming pattern, try it, I can't be bothered really to tab the
whole song but this little tab should be enough to keep you amused.

There's bass i think then the guitar comes in on the verse

VERSE

E)-----------------------------------------------------------------|
B)-----------------------------------------------------------------|
G)-----------------------------------------------------------------|
D)---------------9-9-----------------------------------------------|
A)-6-6-----------7-7------------------9-9--------9-9---------------|
E)-4-4--------------------------------7-7--------6-6---------------|

1,2,3, ...you've broken me (broken me) 1,2,3,    1,2,3!!!

Onto the chorus........

After he sings his little heart out comes a little chorus which is pretty much the
same chord riff, (not too inventive I know but it does work well)

CHORUS

E)-----------------------------------------------------------------|
B)-----------------------------------------------------------------|
G)-----------------------------------------------------------------|
D)------------9-9--------------------------------------------------|
A)-6-6--------7-7---9-9-------------9-9----------------------------|
E)-4-4--------------7-7-------------6-6----------------------------|

I've been waiting, waiting for the day..


E)-----------------------------------------------------------------|
B)-----------------------------------------------------------------|
G)-----------------------------------------------------------------|
D)------------9-9--------------------------------------------------|
A)-6-6--------7-7---9-9-------------9-9----------------------------|
E)-4-4--------------7-7-------------6-6----------------------------|

I've been waiting, waiting for the day..


E)------------------------------------------------------------------|
B)------------------------------------------------------------------|
G)------------------------------------------------------------------|
D)------------              9-9-------------------------------------|
A)-6-6--------              7-7--- 9-9----------9-9-----------------|
E)-4-4--------------              7-7--------------------6-6--------|

..and I'm still waiting for tomorrow, tired of living in yesterday
            
Submit corrections

comments powered by Disqus
↑ Back to top | Zebrahead Tabs for Hello Tomorrow. Lyrics for acoustic guitar and electric guitar. Tablatures and chords are parodies/interpretations of the original songs. You may use it for private study, scholarship, research or language learning purposes only