>
 >
Expectations

Expectations Guitar Tabs

Zebrahead - Expectations chords, tabs, tablatures, lyrics

Guitar lessons | Add/correct | Request | Top 50 tabs Artists:  A B C D E F G H I J K L M N O P Q R S T U V W X Y Z 0-9

Expectations Guitar Tabs – Zebrahead

CD, Sheet music, Poster

Do you like Expectations? Share with your friends now
TabsTabs v2
Intro (Guitar 1):

--------------------------------------|
--------------------------------------|
--------------------------------------|
---5--5--5--5---4--4--4--4------------|
---333333333333-222222222222----------|
--------------------------------------|

--------------------------------------|
--------------------------------------|
--------------------------------------|
---5--5--5--5---4--4--4--4------------|
---333333333333-222222222222----------|
--------------------------------------|


Intro (Guitar 2):

--------------------------------------|
----------------0~--------------------|
----------------4~--------------------|
----------------4~--------------------|
----------------2~--------------------|
--------------------------------------|

--------------------------------------|
---0~-----------0~--------------------|
---5~-------/7--4~--------------------|
---5~-----------4~--------------------|
---3~-----------2~--------------------|
--------------------------------------|



Verse (Guitar 1):

--------------------------------------|
--------------------------------------|
-------5-------5--------4-------4-----|
-----5---5---5---5----4---4---4---4---| 
---3-------3--------2-------2---------|
--------------------------------------|

--------------------------------------|
--------------------------------------|
-------5-------5--------4-------4-----|
-----5---5---5---5----4---4---4---4---| 
---3-------3--------2-------2---------|
--------------------------------------|

--------------------------------------|
--------------------------------------|
-------10-------10-------9-------9----|
-----10--10---10--10---9---9---9---9--|
---8--------8--------7-------7--------|
--------------------------------------|

--------------------------------------|
--------------------------------------|
-------10-------10-------9-------9----|
-----10--10---10--10---9---9---9---9--|
---8--------8--------7-------7--------|
--------------------------------------|


Verse (Guitar 2):

--------------------------------------|
---0--------------0-------------------|
---5-------/7-----4-------------------|
---5--------------5-------------------|
---3--------------2-------------------|
--------------------------------------|

--------------------------------------|
---0--------------0-------------------|
---5-------/7-----4-------------------|
---5--------------5-------------------|
---3--------------2-------------------|
--------------------------------------|

--------------------------------------|
--------------------------------------|
---10---------10--9-------------------|
---10---------10--9-------------------|
---8----------8---7-------------------|
--------------------------------------|

--------------------------------------|
--------------------------------------|
---10---------10--9-------------------|
---10---------10--9-------------------|
---8----------8---7-------------------|
--------------------------------------|



Interlude:

-----------------------------------------------|
--------10---------------------------------9---|
------10----10----10----10-----10---------9----|
----10--------10----10----10-10--10------9-----|x2
---8-------------------------------8----7------|
-----------------------------------------------|



Chorus (Part 1):

-----------------------------------------|
-----------------------------------------|
---5555555533333333----------------------|
---5555555533333333-5555555555555555-----|x2
---3333333333333333-5555555555555555-----|
--------------------3333333333333333-----|


Chorus (Part 2):

------------------------------------------|
------------------------------------------|
---4444444444444444-----------------------|
---4444444444444444-5555555555555555------|
---2222222222222222-5555555555555555------|
--------------------3333333333333333------|

------------------------------------------|
------------------------------------------|
---4444444444444444-5555555555555555------|
---4444444444444444-5555555555555555------|
---2222222222222222-3333333333333333------|
------------------------------------------|




Verse (Guitar 1):

--------------------------------------|
--------------------------------------|
-------5-------5--------4-------4-----|
-----5---5---5---5----4---4---4---4---| 
---3-------3--------2-------2---------|
--------------------------------------|

--------------------------------------|
--------------------------------------|
-------5-------5--------4-------4-----|
-----5---5---5---5----4---4---4---4---| 
---3-------3--------2-------2---------|
--------------------------------------|

--------------------------------------|
--------------------------------------|
-------10-------10-------9-------9----|
-----10--10---10--10---9---9---9---9--|
---8--------8--------7-------7--------|
--------------------------------------|

--------------------------------------|
--------------------------------------|
-------10-------10-------9-------9----|
-----10--10---10--10---9---9---9---9--|
---8--------8--------7-------7--------|
--------------------------------------| 


Verse (guitar 2):

---------------------------------------|
---------------------------------------|
---5----------------4------------------|
---5----------------4------------------|
---3-55555555555555-2-22222222222222---|
---------------------------------------|
PM   ..............   ..............

--------------------------------------|
--------------------------------------|
---10---------10--9-------------------|
---10---------10--9-------------------|
---8----------8---7-------------------|
--------------------------------------|

--------------------------------------|
--------------------------------------|
---10---------10--9-------------------|
---10---------10--9-------------------|
---8----------8---7-------------------|
--------------------------------------|



Interlude:

-----------------------------------------------|
--------10---------------------------------9---|
------10----10----10----10-----10---------9----|
----10--------10----10----10-10--10------9-----|x2
---8-------------------------------8----7------|
-----------------------------------------------|



Chorus (Part 1):

-----------------------------------------|
-----------------------------------------|
---5555555533333333----------------------|
---5555555533333333-5555555555555555-----|x2
---3333333333333333-5555555555555555-----|
--------------------3333333333333333-----|


Chorus (Part 2):

------------------------------------------|
------------------------------------------|
---4444444444444444-----------------------|
---4444444444444444-5555555555555555------|
---2222222222222222-5555555555555555------|
--------------------3333333333333333------|

------------------------------------------|
------------------------------------------|
---4444444444444444-5555555555555555------|
---4444444444444444-5555555555555555------|
---2222222222222222-3333333333333333------|
------------------------------------------|



Solo:

------------------------------------------|
------------------------------------------|
---15b--15p14-12h14b--12/21~-21p19-17-16~-|
------------------------------------------|
------------------------------------------|
------------------------------------------|

------------------------------------------|
------------------------------------------|
---------------15h16p15-------------------|
---------17h19----------17-19p17-17~------|
---17h19----------------------------------|
------------------------------------------|

--------------------------------------------------|
--------------------------------------------------|
---------------15h16p15---------------------------|
---------17h19----------17-19p17-17~-17-----------|
---17h19--------------------------------17h19p17--|
--------------------------------------------------|

----------------------------------------|
----------------------------------------|
---------------15h16p15-----------------|
---------17h19----------17-19p17-17~----|
---17h19--------------------------------|
----------------------------------------|

-----------------------------------------------------------|
---------------------15h17-17h19p17-15-17h15-17-15-17-19b--|
---------------15h16---------------------------------------|
---------17h19---------------------------------------------|
---17h19---------------------------------------------------|
-----------------------------------------------------------|



Chorus (Part 1):

-----------------------------------------|
-----------------------------------------|
---5555555533333333----------------------|
---5555555533333333-5555555555555555-----|x2
---3333333333333333-5555555555555555-----|
--------------------3333333333333333-----|


Chorus (Part 2):

------------------------------------------|
------------------------------------------|
---4444444444444444-----------------------|
---4444444444444444-5555555555555555------|
---2222222222222222-5555555555555555------|
--------------------3333333333333333------|

------------------------------------------|
------------------------------------------|
---4444444444444444-5555555555555555------|
---4444444444444444-5555555555555555------|
---2222222222222222-3333333333333333------|
------------------------------------------|


PM - Palm Muting
~ - let ring/vibrato
/ - slide
p/h - pull-off/hammer-on
b - bend

It's not 100% correct, but I did what I can.
Feel free to post corrections and comments. 





Comments


Popular Zebrahead tabs & chords
Hell That Is My Life Bass Tabs
Runaway Bass Tabs
Into You Chords
Good Thing Tabs
Move On Tabs
Now Or Never 2 Tabs
Photographs Tabs
Playmate Of The Year 6 Tabs
Real Me Tabs
Runaway 1 Tabs


Song lyrics



↑ Back to top | Tablatures and chords are parodies/interpretations of the original songs. You may use it for private study, scholarship, research or language learning purposes only
© 2014 AZChords.com Contact us | Privacy policy | DMCA | Add/correct tabs | Request tabs | Top 50 tabs