» » »

Check Tabs (ver.1)

Artists:  A B C D E F G H I J K L M N O P Q R S T U V W X Y Z # 

Check Tabs (ver.1)

Zebrahead
Rating:
4/5 (6 votes)

Hard to play? Try these video lessons and learn fast.
                Band:  Zebrahead


Verse: Guitar 1
-15(bend)-15(bend)-15(bend)-|-------------|
----------------------------|-------------|
----------------------------|-------------|
----------------------------|---5\4---x8--|
----------------------------|---5\4-------|
----------------------------|---3\2-------|

Verse: Guitar 2 
---------------|-----------------|--------------------|-----------------|
---------------|-----------------|-13xx13x1313/14-----|-13xx13x13-------|
------------x3-|-----------------|-13xx13x1313/14--x3-|-13xx13x13-------|
-5\4-xx-xx-----|-5\4--44334455---|--------------------|-----------15\3--|
-5\4-xx-xx-----|-5\4--44334455---|--------------------|-----------15\3--|
-3\2-----------|-3\2--22112233---|--------------------|-----------13\1--| 
                      ___pm___

Chorus: Both Guitars
---------------------|
---------------------|
-----55-333----------|
-333-55-333----------|
-333-33-111----------|
-111-----------------|

Verse 2: Guitar 1
--15(bend)-----------------------|
---------------------------------|
-play-throughout-whole-verse-----|
---------------------------------|
---------------------------------|
---------------------------------|

Verse 2: Guitar 2
----|---------------|------------|-------------------|------------------|
----|---------------|------------|-13xx13x1313/14----|-13xx13x13--------|
----|-------------x3|------------|-13xx13x1313/14----|-13xx13x13--------|
-4--|-xx-xx--5\4----|--44334455--|-----------------x3|-----------15\3---|
-4--|-xx-xx--5\4----|--44334455--|-------------------|-----------15\3---|
-2--|--------3\2----|--22112233--|-------------------|-----------13\1---| 
                       ___pm___

Chorus

Bridge: Guitar 1
------------------------------------|
------------------------------------|
------------------------------------|
-2---2---2---2---2---2---2---2------|x2
-2---2---2---2---2---2---2---2------|
-0---0---0---0---0---0---0---0------|

Bridge: Guitar 2
---------------------------------------------------------------------------|
---------------------------------------------------------------------------|
------------------------9/-------------------------------------------------|
2--2--2--2--2--2--2--2--9/-2--2------2--2-------2--2-------2--2------------|
2--2--2--2--2--2--2--2--7/-2--2---3--2--2---3---2--2---3---2--2---3--------|
0--0--0--0--0--0--0--0-----0--0-1--1-0--0-1---1-0--0-1---1-0--0-1---1------|


Solo: Guitar 2
---------9-9-9-9-7---------12-12-12-12-12----------9-9-9-9-7---
-----7-7-9-9-9-9-7-----7-7-12-12-12-12-12------7-7-9-9-9-9-7---
-7h9-7-7-----------7h9-7-7-----------------7h9-7-7-------------
-7h9---------------7h9---------------------7h9-----------------
---------------------------------------------------------------
---------------------------------------------------------------

-10-10-10-10-10-10-10-10---------9-9-9-9-7-------12-12-12-12-12--
-10-10-10-10-10-10-10-10-------7-9-9-9-9-7-----7-12-12-12-12-12--
---------------------------7h9-7-----------7h9-7-----------------
---------------------------7h9-------------7h9-------------------
-----------------------------------------------------------------
-----------------------------------------------------------------

-------9-9-9-9-7---------------|
-----7-9-9-9-9-7---------------|
-7h9-7-------------------------|
-7h9---------------2-2--2-2----|
-------------------2-2--2-2----|
-------------------0-0--0-0----|

Solo: Guitar 1
--/19-xx-19-xx-19----------------|
---------------------------------|
---------------------------------|
-------------------2-2--2-2------|
-------------------2-2--2-2------|
-------------------0-0--0-0------|

Chorus

Verse 2

Chorus

Bridge

Chorus
            
Hard to play? Try these video lessons and learn fast. | Correct




comments powered by Disqus
↑ Back to top | Tablatures and chords are parodies/interpretations of the original songs. You may use it for private study, scholarship, research or language learning purposes only