» » »

What You're Look'n For Tabs (ver.1)

Artists:  A B C D E F G H I J K L M N O P Q R S T U V W X Y Z # 

What You're Look'n For Tabs (ver.1)

Zakk Wylde
Rating:
0/5 (0 votes)

Tabs too difficult? Try these video lessons and learn fast.
                

Tuning: Dropped D


INTRO:

|---------0------------------9--------/--------------------------0----|
|---10------10----------10-----10-----/----1--------1-------------3---|
|------11------11----------9----------/------0--------0--------0---0--|
|-0---------------0-------------------/--------0--2-----2----5--------|
|---------------------0-----------0-2-/--3-------h--------------------|
|-------------------------------------/--------------------5---------5|



|------0-----------9-------\--------------0--------------------|
|--10---10------10--10-----\---1-----1----3--------------------|
|----11---11------9--------\----0-----0---0--------------------|
|-0---------0--------------\-----0-2---2--5--------------------|
|--------------0-------0-2-\--3---h-------x--------------------|
|--------------------------\--------------5--------------------|

VERSE:

|------2-3-2--0---0--0-\-------0-------------------------------|
|------3---3--1---1--1-\-------3----3---3----------------------|
|------2---2--0---0--0-\-------0----0---0----------------------|
|---0---------0---2--0-\-------5--5-4---x----------------------|
|-------------3---3--3-\-------x--------7----------------------|
|-0-------------h------\--5-5--5-------------------------------|



|-----3------2------0-----2------0-/---5---3----2----0---------|
|-------3------3------3------3-----/--0-0---0----0----0--3-----|
|---2------2-----2------0------0---/-0----0---0---0----0-------|
|-0--------------------------------/---------------------------|
|----------------------------------/---------------------------|
|----------------------------------/---------------------------|

CHORUS:
            h
|--2------0--2--2-x--------------------------------------------|
|--3------3-----3-x--------------------------------------------|
|--2------2-----2-x-----------2--2-----2-----------------------|
|--0--0---------------2-------2--2--4--2--0--------------------|
|---------------------0--3--4------h---------------------------|
|--------------------------h-----------------------------------|



|--------------------------------------------------------------|
|----1-------1--1------3---3--3--------------------------------|
|----0-------0--0------0---0--0--0-----------------------------|
|----0---2---2--0------5---4--x--0-----------------------------|
|--3---h-----3--3------x------7--------------------------------|
|-------------------5--5---------------------------------------|

Solo:

|-12-12-12----10-10-10---10-7-\--10----------------------------|
|-----------------------------\-----10---7-10--7---7-----------|
|-----------------------------\---------------p--10--10-9--7---|
|-----------------------------\---------------------------p---9|
|-----------------------------\--------------------------------|
|-----------------------------\--------------------------------|



|-12-12-12--10-10-10-10-7-/-10-----/----7-10-7-10-7----7----7---------|
|-------------------------/----10--/----------h--p--10---10--10-7-----|
|-------------------------/--------/-9-------------------------p---9--|
|-------------------------/--------/----------------------------------|
|-------------------------/--------/----------------------------------|
|-------------------------/--------/----------------------------------|


|--------------------------------------------------------------|
|-7-10---7---10-7-10-7-----7-----------------------------------|
|------9----------------10----10-------------------------------|
|--------------------------------9-7----9-7--------------------|
|------------------------------------9-------------------------|
|--------------------------------------------------------------|

                                                       overdub

|-------------------/-------------------------------/----------|
|-------------------/-10---7-10-7----7-repeat lick--/--20-bend-|
|-------------------/-------------10----------------/----------|
|-9-9---7--10--10-7-/-------------------------------/----------|
|-------------------/-------------------------------/----------|
|-------------------/-------------------------------/----------|

lick at the end

|--------------------------------------------------------------|
|--------------------------------------------------------------|
|--------------------------------------------------------------|
|-------0-2-3-----2-0-2---fade out-----------------------------|
|--------------------------------------------------------------|
|--------------------------------------------------------------|
            
Tabs too difficult? Try these video lessons and learn fast.




comments powered by Disqus
↑ Back to top | Tablatures and chords are parodies/interpretations of the original songs. You may use it for private study, scholarship, research or language learning purposes only