>
 >
Trobled Wine

Trobled Wine Guitar Tabs

Zakk Wylde - Trobled Wine chords, tabs, tablatures, lyrics

Guitar lessons | Add/correct | Request | Top 50 tabs Artists:  A B C D E F G H I J K L M N O P Q R S T U V W X Y Z 0-9

Trobled Wine Guitar Tabs – Zakk Wylde

CD, Sheet music, Poster

Do you like Trobled Wine? Share with your friends now
Tabs
Tuning low to high - D A D G B E

Intro:
        ~             ~            ~
|------------|-------------|------------|------------------|
|------------|-------------|------------|------------------|
|------------|-------------|------------|------------------|
|------------|-------------|------------|------------------|
|-0--3s=5----|-0--3s4s5----|-0--3s=5----|-/7-6-5-3s4s5-0---|
|-0--3s=5----|-0--3s4s5----|-0--3s=5----|-/7-6-5-3s4s5-0---|

                                        PM|
|-------------|---------------|---------------|------------|
|-------------|---------------|---------------|------------|
|-------------|---------------|---------------|------------|
|-/10\--------|---------------|---------------|------------|
|-/10\--------|-0--3-5----3-0-|-0--3-5--3-5-3-|-0--3-5-----|
|-/10\--------|-0--3-5----3p0-|-0--3-5--3-5-3-|-0--3-5-----|

                            PM|             PM|                PM|
|-----------------|---------------|------------------|----------------|
|-----------------|---------------|------------------|----------------|
|-----------------|---------------|------------------|----------------|
|-----------------|---------------|------------------|----------------|
|-/7-6-5-3-4-5-0--|-0--3-5--3-5-3-|-0--3-5--3-/5s3S5-|-0--3-5--3-5-3--|
|-/7-6-5-3-4-5-0--|-0--3-5--3-5-3-|-0--3-5--3-/5s3S5-|-0--3-5--3-5-3--|

                     Verse:
     PM--|                  PM|     PM               PM|     PM ~~~~~~
|-------------------||------------------------|------------------------|-|
|-------------------||o-----------------------|----------------/6------|-|
|-------------------||------------------------|-------------------\5\--|-|
|-------------------||------------------------|------------------------|-|
|-/7-6-5-3-4-5-3\---||o-3s0-0-0-3s0-0-/3\-3\--|-/3s0-0-0-3s0-0---------|-|
|-/7-6-5-3-4-5-3\---||--3s0-0-0-3s0-0-/3\-3\--|-/3s0-0-0-3s0-0---------|-|


      PM|     PM               PM|     PM  ~~~~~~~~
|-----------------------|----------------------------||-|
|-----------------------|---------------------------o||-|
|-----------------------|----------------------------||-|
|-----------------------|----------------/10-(10)\---||-|
|-3s0-0-0-3s0-0-/3\-3\--|-/3s0-0-0-3s0-0-/10-(10)\--o||-|
|-3s0-0-0-3s0-0-/3\-3\--|-/3s0-0-0-3s0-0-/10-(10)\---||-|


                                           PM|
|--------------------------|-------------------|
|--------------------------|-------------------|
|---0-(0)-------0-(0)------|----0--------------|
|--------------------------|-------------------|
|-3-------2-(2)-------/5s3-|-5-(5)-3s0-0---0-2-|
|---------------------/5s3-|-5-(5)-3s0-0-------|


                                             ~~~~~
|--------------------------|-----------------------|
|--------------------------|-----------/10-(10)\---|
|---0-(0)-------0-(0)------|---0-------/10-(10)\---|
|--------------------------|-----------/10---------|
|-3-------5-(5)-------/5s3-|-5---3s0-0-------------|
|---------------------/5s3-|-5---3s0-0-------------|


                                           PM---
|--------------------------|-------------------|
|--------------------------|-------------------|
|---0-(0)-------0-(0)------|----0--------------|
|--------------------------|-------------------|
|-3-------2-(2)-------/5s3-|-5-(5)-3s0-0---0-1-|
|---------------------/5s3-|-5-(5)-3s0-0---0-1-|


 -|   PM  PM  PM
|-----------------|-----------|---------|
|-----------------|-----------|------5\-|
|-----------------|---0-0-----|------5\-|
|-----------------|---5-5-(5)-|-(5)--5\-|
|-3-3-3-3-3-3-3-3-|-5-5-5-(5)-|-(5)-----|
|-3-3-3-3-3-3-3-3-|-5-5-5-(5)-|-(5)-----|


  Chorus:
                                     PM|
||------2------------|------0------------|--------------------|
||o-----3--3---------|---------3---------|------5\------------|
||------2------2-----|-------------0-----|------5\------------|
||--0---0------------|-------------------|--------------------|
||o-0------------3h5-|-0-------------0-2-|-3------------------|
||--0----------------|-------------------|--------------------|
|
|
||--2---2--2-2-2-----|-------------------|-0-0--0---0-0-0-0-0-|
||o-3---3--3-3-3-----|-------------------|-1-1--1---1-1-1-1-1-|
||--2---2--2-2-2-----|-2-2--2--2-2-2-----|-0-0--0---0-0-0-0-0-|
||--0---0--0-0-0-----|-2-2--2--2-2-2-----|-2-2--2---2-2-2-2-2-|
||o--------------3h5-|-0-0--0--0-0-0-0h2-|-3-3--3---3-3-3-3-3-|
||-------------------|-------------------|--------------------|



  PM      PM
|-------------------||-------------|---2-----2-----2-|-----2-----2-----|
|------------------o||---------1-0-|-----3-----3-----|-3-----3-----3---|
|-------------------||-------0-----|-----------------|-----------------|
|---5-------3\--3\--||-0-----------|-0-----0-----0---|---0-----0-----0-|
|-5-5-5-5-0-3\--3\-o||-5-----------|-----------------|-----------------|
|-5-5-5-5-0-3\--3\--||-3-----------|-----------------|-----------------|
|
|-----3-3-----------||-------------|-----------------|-----------------|
|-----3-3----------o||-3-----------|-----------------|-----------------|
|-----0-0-----------||-------------|-----------------|-----------------|
|-----0-0---3---3---||-0-----------|-----------------|-----------------|
|-----2-2---3---3--o||-5-----------|-----------------|-----------------|
|-----3-3---1---1---||-3-----------|-----------------|-----------------|


|-----1-----0---------------|------------|-|
|-----------------3---------|-3----------|-|
|---2---2-----2-----2---0h2-|---2--------|-|
|-3-------3-----3-----3-----|-----3-0-3--|-|
|---------------------------|---------3--|-|
|---------------------------|---------3--|-|

1st Solo:

|-----------------|---------------------|----------------------|
|-9/--------------|-10/-----------------|----------------------|
|-9/--------------|-10/----------9------|---------/12-10-7-----|
|-----------------|----------------10---|-(10)-----------------|
|-----------------|---------------------|----------------------|
|-----------------|---------------------|----------------------|
|
|
|           PM|               PM|                        PM|
|-----------------|---------------------|----------------------|
|-----------------|---------------------|----------------------|
|-----------------|---------------------|----------------------|
|-----------------|---------------------|----------------------|
|--0---3-5--3-5-3-|--0---3-5--3-/5s=3S5-|---0---3---5----3-5-3-|
|--0---3-5--3-5-3-|--0---3-5--3-/5s=3S5-|---0---3---5----3-5-3-|


                   ~~~~~~~~~~~~~~~~~~~~~~~~~~~~~~~~~~~~~~~~~~~~~~
|------------------------|----------------------|----------------------------------|
|------------------------|-/15--15-15--15-/18---|-/15--15-15--15-/20----\18-\15----|
|-/13-/12-/10-10---7-----|----------------------|--------------------19------------|
|------------------------|----------------------|----------------------------------|
|------------------------|----------------------|----------------------------------|
|------------------------|----------------------|----------------------------------|
|
|                                       PM|                    PM|
|------------------------|----------------------|----------------------------------|
|------------------------|----------------------|----------------------------------|
|------------------------|----------------------|----------------------------------|
|------------------------|----------------------|----------------------------------|
|--/7---6---5--3-4-5-3\--|---0---3--5---3---5-3-|---0---3--5---3--/5s=3S==5--------|
|--/7---6---5--3-4-5-3\--|---0---3--5---3---5-3-|---0---3--5---3--/5s=3S==5--------|


|------------------------------------------|-------------------|
|-/20-----/20-----/20------/20-----/20-----|-14\---------------|
|-----\19-----\19-----\19------\19-----\19-|-14\---------------|
|------------------------------------------|-------------------|
|------------------------------------------|-------------------|
|------------------------------------------|-------------------|
|
|                                PM|
|------------------------------------------|-------------------|
|------------------------------------------|-------------------|
|------------------------------------------|-------------------|
|------------------------------------------|-------------------|
|---0-----------3---5------------3---5---3-|-/7--6-5-3-4-5-3\--|
|---0-----------3---5------------3---5---3-|-/7--6-5-3-4-5-3\--|

2nd Solo:
                                                                           ~~~~~~~~~~~~~~
|---------------------------------------------|-------10---------------10----------------------|
|-13------13----------------------------------|-13b15-----13pb15r13b15----13b15-(13)pb15-------|
|-12b14---12b14r(12)p10-12-----10-------------|------------------------------------------------|
|---------------------------------12-12-------|------------------------------------------------|
|---------------------------------------------|------------------------------------------------|
|---------------------------------------------|------------------------------------------------|
|
|                                                                                          PM|
|---------------------------------------------|------------------------------------------------|
|---------------------------------------------|------------------------------------------------|
|-------0-(0)-------------------0----(0)------|--------0---------------------------------------|
|---------------------------------------------|------------------------------------------------|
|--3---------------------2-(2)-----------/5s3-|--5----(5)---------3s=======0------0--------0-2-|
|----------------------------------------/5s3-|--5----(5)---------3s=======0------0------------|


                                                                     ~~~~
|-----------14-----------------13--------12------|--------------------------------------|
|-------------------12-(12)----------------------|-----------12-10-(10)---------12s==10-|
|-/13-14p13-----/13---------13----10s12----------|-\12-10----12-10-(10)-----------------|
|------------------------------------------------|--------12-------------10s12----------|
|------------------------------------------------|--------------------------------------|
|------------------------------------------------|--------------------------------------|
|
|                                                                                ~~~~~
|------------------------------------------------|--------------------------------------|
|------------------------------------------------|----------------------/10----(10)\----|
|------0----(0)-----------------0----(0)---------|------0---------------/10----(10)\----|
|------------------------------------------------|----------------------/10-------------|
|---3-------------5-----(5)-----------------/5s3-|---5--------3s=0---0------------------|
|-------------------------------------------/5s3-|---5--------3s=0---0------------------|


|-13-10---------13-10-13-10--------13-13-10-10-10-13--10-13-10-------13-10-13--10-------13-10-------|
|-------13-10----------------13-10-----------------------------13-10--------------13-10-------13-10-|
|---------------------------------------------------------------------------------------------------|
|---------------------------------------------------------------------------------------------------|
|---------------------------------------------------------------------------------------------------|
|---------------------------------------------------------------------------------------------------|
|
|---------------------------------------------------------------------------------------------------|
|---------------------------------------------------------------------------------------------------|
|-------------0----------(0)------------------------------------0----------(0)----------------------|
|---------------------------------------------------------------------------------------------------|
|--3-----------------------------------2----------(2)-----------------------------------/5s====3----|
|---------------------------------------------------------------------------------------/5s====3----|


                                         ~~~~~~~~
|-13-13-10------------------------------------------|
|----------13--10-13pb15r==(13)b15-----(13)pb15-----|
|---------------------------------------------------|
|---------------------------------------------------|
|---------------------------------------------------|
|---------------------------------------------------|
|
|                                               PM---
|---------------------------------------------------|
|---------------------------------------------------|
|-----------0---------------------------------------|
|---------------------------------------------------|
|--5-------(5)-----------3s========0-0----------0-1-|
|--5-------(5)-----------3s========0-0----------0-1-|


|---------------------------------|---------------------|-------|
|---13------13------13------13----|---------------------|-------|
|---12b14---12b14---12b14---12b14-|-0---0-(0)-----------|-------|
|---------------------------------|-5---5-(5)-----------|-------|
|---------------------------------|-5---5-(5)-----------|-------|
|---------------------------------|-5---5-(5)-----------|-------|
|
|-|       PM      PM      PM
|---------------------------------|---------------------|-------|
|---------------------------------|---------------------|----5\-|
|---------------------------------|---0-0---------------|----5\-|
|---------------------------------|---5-5-(5)----(5)----|----5\-|
|-3--3----3--3----3--3----3--3----|-5-5-5-(5)----(5)----|-------|
|-3--3----3--3----3--3----3--3----|-5-5-5-(5)----(5)----|-------|


Chorus:                               PM|
||------2------------|------0------------|--------------------|
||o-----3--3---------|---------3---------|------5\------------|
||------2------2-----|-------------0-----|------5\------------|
||--0---0------------|-------------------|--------------------|
||o-0------------3h5-|-0-------------0-2-|-3------------------|
||--0----------------|-------------------|--------------------|
|
|
||--2---2--2-2-2-----|-------------------|-0-0--0---0-0-0-0-0-|
||o-3---3--3-3-3-----|-------------------|-1-1--1---1-1-1-1-1-|
||--2---2--2-2-2-----|-2-2--2--2-2-2-----|-0-0--0---0-0-0-0-0-|
||--0---0--0-0-0-----|-2-2--2--2-2-2-----|-2-2--2---2-2-2-2-2-|
||o--------------3h5-|-0-0--0--0-0-0-0h2-|-3-3--3---3-3-3-3-3-|
||-------------------|-------------------|--------------------|


  PM      PM                       PM|
                    4x
|-------------------||-||----------------|
|------------------o||-||o---------------|
|-------------------||-||----------------|
|---5-------3\--3\--||-||----------------|
|-5-5-5-5-0-3\--3\-o||-||o-0--3-5--3-5-3-|
|-5-5-5-5-0-3\--3\--||-||--0--3-5--3-5-3-|
|
|                   4x
|-----3-3-----------||-||----------------|
|-----3-3----------o||-||o---------------|
|-----0-0-----------||-||----------------|
|-----0-0---3---3---||-||----------------|
|-----2-2---3---3--o||-||o---------------|
|-----3-3---1---1---||-||----------------|


          PM|                PM|
|------------------|---------------|-------------------||-|
|------------------|---------------|------------------o||-|
|------------------|---------------|-------------------||-|
|------------------|---------------|-------------------||-|
|-0--3-5--3-/5s3S5-|-0--3-5--3-5-3-|-/7-6-5-3-4-5-3\--o||-|
|-0--3-5--3-/5s3S5-|-0--3-5--3-5-3-|-/7-6-5-3-4-5-3\---||-|
|
|------------------|---------------|-------------------||-|
|------------------|---------------|------------------o||-|
|------------------|---------------|-------------------||-|
|------------------|---------------|-------------------||-|
|------------------|---------------|------------------o||-|
|------------------|---------------|-------------------||-|


|----------*|----|
|----------*|----|
|----------*|----|
|-0--------*|----|
|-0--------*|----|
|-0--------*|----|





Comments


Popular Zakk Wylde tabs & chords
Evil Ways Chords
Road Back Home Chords
Way Beyond Empty Chords
1,000,000 Miles Away Tabs
Farewell Ballad Tabs
Machine Gun Man 1 Tabs
Machinegun Man Tabs
Sold My Soul Tabs
Sweet Home Basildon Tabs
White Christmas Tabs


Song lyrics



↑ Back to top | Tablatures and chords are parodies/interpretations of the original songs. You may use it for private study, scholarship, research or language learning purposes only
© 2014 AZChords.com Contact us | Privacy policy | DMCA | Add/correct tabs | Request tabs | Top 50 tabs