>
 >
Sweet Home Basildon

Sweet Home Basildon Guitar Tabs

Zakk Wylde - Sweet Home Basildon chords, tabs, tablatures, lyrics

Guitar lessons | Add/correct | Request | Top 50 tabs Artists:  A B C D E F G H I J K L M N O P Q R S T U V W X Y Z 0-9

Sweet Home Basildon Guitar Tabs – Zakk Wylde

CD, Sheet music, Poster

Do you like Sweet Home Basildon? Share with your friends now
Tabs
Gtr I (E A D G B E) - 'Zakk lead overdrive'
Gtr II (E A D G B E) - 'Zakk lead dist'

 Lead
  Q=82
 4/4
  Gtr I
                                          ~~~~~~~~~
  H       E  S  S S     +S  S S   S  S a  E    +Q     +Q.     E
|-----------10------------------|---------------------------------|
|--------------10---------------|---------------------------------|
|-----------------9pb11r(9)-7---|-7--9-9s11---(11)---(11)---------|
|-----------------------------9-|---------------------------------|
|-------------------------------|---------------------------------|
|-------------------------------|---------------------------------|



  S T T S S S  S S S S S S S S S S S   S S S S S S S S  S  S S S E S S
|------------------------------------|---------------------------------|
|-8-7h8p7----------------------------|-------------------------------0-|
|---------9p7----7-------------------|-----------------------7---7-7---|
|--------------9---9p7---7-----------|---------------7--7h=9---9-------|
|----------------------9---9p7s5-7-5-|-----5---5-7s9-------------------|
|------------------------------------|-5h7---7-------------------------|



   a      +E   S  a      +S  S   S S      +S  S  S S  S  +S   S S     +S
|-------------10-------------7----------------7------10-(10)--------------|
|-10b12==(12)----10pb12r(10)----10--------------10-----------10-----------|
|----------------------------------9b11==(11)------7------------9pb11r(9)-|
|-------------------------------------------------------------------------|
|-------------------------------------------------------------------------|
|-------------------------------------------------------------------------|



          ~~
  E  S S  Q    +Q.     E
|---------------------------|
|---------------------------|
|-7--9-9s11---(11)----------|
|---------------------------|
|---------------------------|
|---------------------------|



   a  E  E  +E   a S S S E.   E S S
|-----------------------------------|
|-10h12-10-(10)---------------------|
|---------------11s9-7---7----7-7-7-|
|----------------------9------------|
|-----------------------------------|
|-----------------------------------|



     |-3-|
  S  T T T S S a      +E   S S       S   S S     +S  S S E
|-----------------------------------10------------------------|
|-8--7h8p7---7------------10------------10--------------------|
|----------9---9b11==(11)----9b11==(11)----9pb11r(9)-7---7----|
|------------------------------------------------------9------|
|-------------------------------------------------------------|
|-------------------------------------------------------------|



                                 Gtr II
                                            ~~~~
   a  E.   S E  E   +E  S S  E E    a      +H.              a      +S   +E.
|--------------------------------|--------------------------------------------|
|-10s12--\10----7---(7)-7--------|-13b15==(15)--------------------------------|
|--9s11---\9----7---(7)-7----7s9-|-------------------------12b13==(13)r(12)---|
|-------------------------9--7s9-|--------------------------------------------|
|--------------------------------|--------------------------------------------|
|--------------------------------|--------------------------------------------|



                         ~~
    |---3----|
   +E       +S   +S   T  T  +Q     Q    +E   S   S
|----------------------------------------------------|
|----------------------------------------------------|
|-(12)b13==(13)r(12)-10-----------10---(10)\---------|
|-----------------------12-(12)---10---(10)\-4/-10---|
|----------------------------------------------------|
|----------------------------------------------------|



                                                                                            ~~
   |--3--|        |--3--|  |--3--|  |-----6------|  |-----------9-----------|
   S  S  S  T  T  T  T  T  S  S  S  T T  T  T  T T  S  S  S  S  S  S  S  S  S  T  T  T  T S S
|-------------------------10---------10-15-13-10------------10---------------------------------|
|-------------13p10----10----10-12-13-----------13-10----10----13-10---------------------------|
|----10-14-10-------12--------------------------------13-------------12-13----10-13-10----x-12-|
|-12-----------------------------------------------------------------------12----------12------|
|----------------------------------------------------------------------------------------------|
|----------------------------------------------------------------------------------------------|



                  ~~~~~~~~
   +E  s  a      +S   +Q     +Q     a      +E.    S
|----------------------------------------------------|
|--------13b15==(15)-(15)---(15)---13b15==(15)\---2/-|
|-(12)-----------------------------------------------|
|----------------------------------------------------|
|----------------------------------------------------|
|----------------------------------------------------|



                                                 ~~~~
                                                         |--3--|
  S S S S +E  S S  S  S  a      +E   +Q         +Q    E  S S   S S S a      +S  +S  E.   S
|--------------------------------------------|----------------------------------------------|
|-8p7---------8p7-------10b12==(12)-(12)r====|=(10)--/8--7h8p==7---7------------------------|
|-----9-7-(7)------9--7----------------------|-------------------9---9b11==(11)r(9)-7----7--|
|--------------------------------------------|----------------------------------------------|
|--------------------------------------------|----------------------------------------------|
|--------------------------------------------|----------------------------------------------|



  |-----6------|  |----6-----|  |----6-----|  |-----6-----|
  S  S S S S   S  S S  S S S S  S  S S S S S  S S S S S   S
|-----------------------------------------------------------|
|-8--7-8-7-------10-7-10-7------8--7-8-7-----10-7-----8---7-|
|----------9---7-----------9-7-----------9-7------9-7-------|
|-----------------------------------------------------------|
|-----------------------------------------------------------|
|-----------------------------------------------------------|



                                     |------10:8--------| |-------10:8--------|
  T T  T T T T T T T  T  T T T T T T T T  T T T T T T T T T T T T T T T T   T T
|---------------------------------------------------------------------------------|
|-----10-7-----8-7------10-7-----8-7-----10-7-----8-7-----8-7-8-7-8-7-8-7---------|
|-9-7------9-7-----9--7------9-7-----9-7------9-7-----9-7-------------------9-7---|
|---------------------------------------------------------------------------------|
|---------------------------------------------------------------------------------|
|---------------------------------------------------------------------------------|



                     |------10:8-------|                   |---------10:8----------|
  T  T T  T T T T T  T T T T T T T T T T  T  T T T T T T T T T  T T  T T  T T    T T
|--------10----------------------------------------------------10-7------10-7----------|
|-8--7------8-7-----10-7-----8-7-----8-7-------8-7-----8-7----------10-7--------10-7---|
|------9--------9-7------9-7-----9-7------9--7-----9-7-----9-7-------------------------|
|--------------------------------------------------------------------------------------|
|--------------------------------------------------------------------------------------|
|--------------------------------------------------------------------------------------|



                       |---------10:8-----------|                      |--------10:8---------|
   T T  T T  T T  T T  T  T  T T  T T  T T    T T  T T  T T  T T  T T  T T  T T T T  T T   T T
|-10-7------10-7-10-7-------10-7-10-7-10-7--------10-7-10-7-10-7------10-7---------------------|
|------10-7-----------10--7------------------10-7----------------10-7------10-7-----10-7-------|
|-------------------------------------------------------------------------------9-7--------9-7-|
|----------------------------------------------------------------------------------------------|
|----------------------------------------------------------------------------------------------|
|----------------------------------------------------------------------------------------------|



      ~~                     ~~~~~
   S  E.   S  a      +E.    +E   +Q    E
|------------------------------------------|
|------------10b12==(12)---(12)r(10)---2s==|
|-----9----x-------------------------------|
|------------------------------------------|
|-(0)--------------------------------------|
|------------------------------------------|



                       ~~~~~~~~             PM--------------------|   ~
    |-3-|
  E S S S a      +S  S E   +Q.      +E      S  S S S S  S S S S S S S E   E
|----------------------------------------|-------------------------------------|
|-8-7h8p7--------------------------------|-------------------------------------|
|---------9b11==(11)r9-7---(7)------(7)\-|------------------------7---7--------|
|----------------------------------------|--------------7-7---7-9---9-----9\---|
|----------------------------------------|-------5-7s9------9------------------|
|----------------------------------------|--5--7-------------------------------|



    PM--|   PM---|                       ~~
  S T T S S T  T S S S a      +S  S S S  E E
|---------------------------------------------|
|---------------------------------------------|
|-7-------7--------7---9b11==(11)r9-7----7----|
|---9-7-----9--7-----9----------------9----9\-|
|-------9--------9----------------------------|
|---------------------------------------------|



        ~           ~~
   S  S E +S     S  E  +S     S  S  S  E  +S   a      +S
|-------------------------------10----10-(10)-12b14==(14)--|
|------------------10-(10)\-/12----12----------------------|
|-------7-(7)\-/11-----------------------------------------|
|----------------------------------------------------------|
|--x\-9----------------------------------------------------|
|----------------------------------------------------------|



                                      ~~~~~
   +Q    +S   +E.  Q  E  E    a      +Q    Q  E S S S S S S
|-(14)--(14)r(12)-12--x\---|---------------------------------|
|---------------------x\-0-|-10b12==(12)r=10-----------------|
|---------------------x\---|------------------9-7---9---7-9s=|
|--------------------------|----------------------9---9------|
|--------------------------|---------------------------------|
|--------------------------|---------------------------------|



                                                          ~~~~
                             |-3-|
   T  T  T  T  T  T  T  T  a S S S T T T T T T T T a S S +Q
|--------------------------------------------------------------*|
|----10----10----10----10--------------------------------------*|
|-11----11----11----11----11s9p7---9---7-----------------------*|
|--------------------------------9---9---9p7---7---------------*|
|--------------------------------------------9---9-9S7p5-(5)\--*|
|--------------------------------------------------------------*|


   Rhythm
    Gtr III (E A D G B E) - 'Rhythm clean'
    $
    Q  E. S E E E S S   E. S E E +E  E E S S  4x
||--0--2--2-2-2-2-2-2-|--------3-(3)-3-3-3-3--||
||o-3--3--3-3-3-3-3-3-|-3--3-3-3-(3)-3-3-3-3-o||
||--2--2--2-2-2-2-2-2-|-0--0-0-0-(0)-0-0-0-0--||
||--0--0--0-0-0-0-0-0-|-x--x-x-0-(0)-0-0-0-0--||
||o-------------------|-3--3-3-x-(x)-x-x-x-x-o||
||--------------------|--------3-(3)-3-3-3-3--||


  Q  E. S E E  E E   +Q   E. S S S E S S E
|----------------3-|-(3)--3--3-3-3-3-3-3-3-|
|----8--8-8-8-/7-3-|-(3)--3--3-3-3-3-3-3-3-|
|----9--9-9-9-/7-0-|-(0)--0--0-0-0-0-0-0-0-|
|-2--9--9-9-9-/7-0-|-(0)--0--0-0-0-0-0-0-0-|
|-2--7--7-7-7-/9-x-|-(x)--x--x-x-x-x-x-x-x-|
|-0--------------3-|-(3)--3--3-3-3-3-3-3-3-|


                               D.S.
  Q  E. S E E  E E   +Q   Q  Q  Q     W          +W
|----------------3-|-(3)--3--0--0--||-2--------|-(2)----*|
|----8--8-8-8-/7-3-|-(3)--3--2--2--||-3--------|-(3)----*|
|----9--9-9-9-/7-0-|-(0)--0--2--2--||-2--------|-(2)----*|
|----9--9-9-9-/7-0-|-(0)--0--2--2--||-0--------|-(0)----*|
|-7--7--7-7-7-/9-x-|-(x)--x--0--0--||----------|--------*|
|-0--------------3-|-(3)--3--------||----------|--------*|
 





Comments


Popular Zakk Wylde tabs & chords
Dead As Yesterday 2 Tabs
Farm Fiddlin Tabs
Lovin' Woman 1 Tabs
Machine Gun Man 3 Tabs
Machinegun Man Tabs
National Athem Tabs
Throwin' It All Away Tabs
Road Back Home Ukulele
Too Numb To Cry Ukulele
What Youre Looking For Ukulele


Song lyrics



↑ Back to top | Tablatures and chords are parodies/interpretations of the original songs. You may use it for private study, scholarship, research or language learning purposes only
© 2014 AZChords.com Contact us | Privacy policy | DMCA | Add/correct tabs | Request tabs | Top 50 tabs