>
 >
Sp Shuffle

Sp Shuffle Guitar Tabs

Zakk Wylde - Sp Shuffle chords, tabs, tablatures, lyrics

Guitar lessons | Add/correct | Request | Top 50 tabs Artists:  A B C D E F G H I J K L M N O P Q R S T U V W X Y Z 0-9

Sp Shuffle Guitar Tabs – Zakk Wylde

CD, Sheet music, Poster

Do you like Sp Shuffle? Share with your friends now
Tabs
Gtr I (E A D G B E) - 'Zakk lead dist electric'
Gtr II (D A D G B D) - 'Rhythm dist electric'

Q.=114
 12/8
  Gtr II
                                                       PM
  E E E E E E E E E E E E   E E E Q. e Q Q e   E E E Q E E E E E E E
|-------------------------|------------------|------------------------|
|-------------------------|------------------|------------------------|
|-------------------------|------------------|------------------------|
|-5-4-3-------------------|-------3----5-5---|-------3-------3--------|
|-------4-5-3-------------|-------3----5-5---|-------3-0-3h5---3h5----|
|-------------5-4-3-2-3-2-|-0-0-0-3----5-5---|-0-0-0-3-------------3--|


  E E E Q.   e Q  Q  e   E E E E E E Q  E Q.
|----------------------|-----------------------||
|----------------------|-----------------------||
|----------------------|-----------------------||
|-------3------5--5----|-------------0---------||
|-------3------5--5----|-0-0-0-3-3-3-0---------||
|-0-0-0-3------5--5----|-0-0-0-3-3-3-0---------||



           PM            PM
           E  E E Q.     E   E E          Q.
|---------------------------------------------------|
|---------------------------------------------------|
|---------------------------------------------------|
|-------------0---0----------0------------0---------|
|----------0--0---0------0---0------------0---------|
|----------0--0---0------0---0------------0---------|
|
|Gtr I
|          ~~~~
|  a      +H.           +Q.       a      +E   +Q
|---------------------------------------------------|
|-13b15==(15)----------(15)r-----13b15==(15)r(13)---|
|---------------------------------------------------|
|---------------------------------------------------|
|---------------------------------------------------|
|---------------------------------------------------|


    PM
    E  E E   Q.         E      Q     E  Q
|--------------------------------------------------|
|--------------------------------------------------|
|--------------------------------------------------|
|------0-----0-----------------3--------3----------|
|---0--0-----0-----------------3--------3----------|
|---0--0-----0-----------------3--------3----------|
|
|  +Q.      +Q    S  S  S  S  +Q    +E.    S  S  S
|----------------10----13-----------------10-------|
|-(13)-----(13)-----13----12-(12)--(12)------13-10-|
|--------------------------------------------------|
|--------------------------------------------------|
|--------------------------------------------------|
|--------------------------------------------------|


           PM                          PM
           E  E  E     Q.              E  E E Q.
|--------------------------------------------------|
|--------------------------------------------------|
|--------------------------------------------------|
|-------------0--------0------------------0---0----|
|----------0--0--------0---------------0--0---0----|
|----------0--0--------0---------------0--0---0----|
|
|                                  ~~~~~~~
|  a      +Q     S  S  S  S  S  S  E  +H.
|--------------------------------------------------|
|--------------------------------------------------|
|-12b14==(14)r==12p10-12p10-12p10-12-(12)----------|
|--------------------------------------------------|
|--------------------------------------------------|
|--------------------------------------------------|


  PM
  E          E  E  Q.    E     Q                    E   Q
|------------------------------------------------------------------|
|------------------------------------------------------------------|
|------------------------------------------------------------------|
|------------0-----0-----------5------------------------3----------|
|-0----------0-----0-----------5------------------------3----------|
|-0----------0-----0-----------5------------------------3----------|
|
|                                         ~~~~~~~~
| E  a      +Q     Q.    S  S  S  a      +S   +E   +E.     S  S  S
|-----------------------10--------------------------------10-------|
|---12b14==(14)r==12-------13-10-13b15==(15)-(15)-(15)r------13-10-|
|-x----------------------------------------------------------------|
|------------------------------------------------------------------|
|------------------------------------------------------------------|
|------------------------------------------------------------------|


           PM                                 PM
           E  E  E     Q.                     E      E     E         Q.
|--------------------------------------------------------------------------------|
|--------------------------------------------------------------------------------|
|--------------------------------------------------------------------------------|
|-------------0--------0-----------------------------0---------------0-----------|
|----------0--0--------0----------------------0------0---------------0-----------|
|----------0--0--------0----------------------0------0---------------0-----------|
|
|  a      +Q     S  S  S   S  S S  S  S      +S   S  S  S  S  S  a   E.  S  S  S
|---------------10--------10-----------------------------------------------------|
|-13b15==(15)------13-12-----11---------------------------12----10-(10)----12----|
|-------------------------------0-12-12b13==(13)r12p10----12----10h=11-----12-10-|
|------------------------------------------------------12----12---------12-------|
|--------------------------------------------------------------------------------|
|--------------------------------------------------------------------------------|


      PM
      E  E     E        Q.                E           Q    E  Q
|----------------------------------------------------------------|
|----------------------------------------------------------------|
|----------------------------------------------------------------|
|--------0--------------0-----------------------------3-------3--|
|-----0--0--------------0-----------------------------3-------3--|
|-----0--0--------------0-----------------------------3-------3--|
|
|                                                 ~~~~~~~~~~~~
|              |--3--|
|  a  E  S  S  S  S  S  S  S  S  S  S  S  S      +S   Q   +Q.
|----------------------------------------------------------------|
|-------13----13----13-------------------------------------------|
|-12s14----14----14----14s12p10----12----10b12==(12)r10--(10)----|
|-------------------------------12----12-------------------------|
|----------------------------------------------------------------|
|----------------------------------------------------------------|


    PM                   PM
    E  E E Q.            E  E E   Q.
|-------------------------------------------|
|-------------------------------------------|
|-------------------------------------------|
|------0---0----------------0-----0---------|
|---0--0---0-------------0--0-----0---------|
|---0--0---0-------------0--0-----0---------|
|
|                        ~~~
|  +Q.     Q   S  S      Q.      +Q    S  S
|-------------------------------------------|
|----------------13pb14r13------(13)--13-10-|
|-(10)-----x---x----------------------------|
|-------------------------------------------|
|-------------------------------------------|
|-------------------------------------------|


           E  E E E E E   E  Q    E   Q
|------------------------------------10-------|
|------------------------------------10-------|
|----------------------------5--------7-------|
|----------3----3---5-5------5--------7-------|
|----------3----3---5-5------3----------------|
|----------3----3---5-5-----------------------|
|
|  a      +H.            +Q.     +Q      S  S
|-13b15==(15)-----------(15)----(15)----13-10-|
|---------------------------------------------|
|---------------------------------------------|
|---------------------------------------------|
|---------------------------------------------|
|---------------------------------------------|


   E       E       E             Q.                 e  Q           Q           e
|-------------------------------------------------------------------------------------|
|-------------------------------------------------------------------------------------|
|-------------------------------------------------------------------------------------|
|--------------------------------3---------------------5-----------5------------------|
|--------------------------------3---------------------5-----------5------------------|
|--0-------0-------0-------------3---------------------5-----------5------------------|
|
|  |-----------7:6-----------|
|  S  S  S    S  S    S  T   T   E   S  S  S  T  T  E  S  S  S  S  S  S  S  S  S  S
|-13p10-13p==10-13p==10----(10)-15--10----10-15-13-10----------10-15-10----10-15-13---|
|--------------------------------------13-------------13-13-13----------13------------|
|-----------------------13------------------------------------------------------------|
|-------------------------------------------------------------------------------------|
|-------------------------------------------------------------------------------------|
|-------------------------------------------------------------------------------------|


                                        PM
   E       E       E        Q           E     E     E     E     E     E     E
|--------------------------------------------------------------------------------|
|--------------------------------------------------------------------------------|
|--------------------------------------------------------------------------------|
|---------------------------3-----------------------------3----------------------|
|---------------------------3-----------0-----3h====5-----------3h====5----------|
|--0-------0-------0--------3-----------------------------------------------3----|
|
|  |---------7:6---------|
|  S  S  S    S  S    S  S  S  S  S  S  S  S  S  S  S  S  S  S  S  S  S  S  S  S
|-10-----------------10----------------------------------------------------------|
|----13-10------10------13-10-------------------------13-10-------12-10-------13-|
|------------13---------------13-10----10-13-10-12-10-------12-10-------12-10----|
|-----------------------------------12-------------------------------------------|
|--------------------------------------------------------------------------------|
|--------------------------------------------------------------------------------|


   E       E       E        Q.                 e     Q           Q           e
|---------------------------------------------------------------------------------|
|---------------------------------------------------------------------------------|
|---------------------------------------------------------------------------------|
|---------------------------3------------------------5-----------5----------------|
|---------------------------3------------------------5-----------5----------------|
|--0-------0-------0--------3------------------------5-----------5----------------|
|
|  |---------7:6---------|
|  S  S  S    S  S    S  S  S   S  S  S  S  S  S  S  S  S  S  S  S  S  S  S  S  S
|---------------------------------------------13-10-------------------------------|
|-10-13-10---13-10---------13--10-13-10-------------13-10-------13-10-------------|
|--------------------12-10--------------12-10-------------12-10-------12-10-------|
|---------------------------------------------------------------------------12-10-|
|---------------------------------------------------------------------------------|
|---------------------------------------------------------------------------------|


           E   E  E   E   E  E          H.
|-------------------------------------------------------*|
|-------------------------------------------------------*|
|---------12--12-12--10--10-10----------7\--------------*|
|---------12--12-12--10--10-10----------7\--------------*|
|---------10--10-10---8---8--8----------5\--------------*|
|-------------------------------------------------------*|
|
|                                       ~~~~
|  a      +Q.        +Q      E  a      +Q.    +Q    E
|-------------------------------------------------------*|
|-13b15==(15)-------(15)----10-13b15==(15)---(15)\------*|
|-------------------------------------------------------*|
|-------------------------------------------------------*|
|-------------------------------------------------------*|
|-------------------------------------------------------*|





Comments


Popular Zakk Wylde tabs & chords
Dead As Yesterday Chords
1,000,000 Miles Away Tabs
Between Heaven And Hell Tabs
Farewell Ballad Tabs
Machine Gun Man 4 Tabs
Spoke In The Wheel Tabs
The Things You Do 1 Tabs
Way Beyond Empty Tabs
Dead As Yesterday Ukulele
Road Back Home Ukulele


Song lyrics



↑ Back to top | Tablatures and chords are parodies/interpretations of the original songs. You may use it for private study, scholarship, research or language learning purposes only
© 2014 AZChords.com Contact us | Privacy policy | DMCA | Add/correct tabs | Request tabs | Top 50 tabs