» » »

Free Tabs (ver.4)

Artists:  A B C D E F G H I J K L M N O P Q R S T U V W X Y Z # 

Free Tabs (ver.4)

Zac Brown Band
Rating:
3/5 (3 votes)

Hard to play? Try these video lessons and learn fast.
                (Intro)
Capo on 1st


          C
e|-----------------------------------------------------|
B|-----------------------------------------------------|
G|---------0---0---2-----------------0-----0---2-------|
D|----0h2----2--------0-----0h2---2-----2----------0---|
A|----3-------------------3----------------------------|
E|-----------------------------------------------------|

          F
e|------------------0-------0h1p0------0-----------------------|
B|---------1----------------------------------0h1p0---------1--|
G|---0h2------2p0---------------------------------------0------|
D|---3-------------------3---------3------3----------3---------|
A|-------------------------------------------------------------|
E|-------------------------------------------------------------|
            
Hard to play? Try these video lessons and learn fast. | Correct




comments powered by Disqus
↑ Back to top | Tablatures and chords are parodies/interpretations of the original songs. You may use it for private study, scholarship, research or language learning purposes only