» » »

Zac Brown Band, Free Tabs (ver.2)

Artists:  A B C D E F G H I J K L M N O P Q R S T U V W X Y Z # 

Free Tabs (ver.2)

Zac Brown Band Tabs
Rating:
2/5 (5 votes)
Free lessons Tabs too difficult? Try these video lessons and learn fast
                (Intro)
This is the intro to Free by The Zac Brown Band. This is exactly how Zac Brown
plays it with the correct tuning. This is played throughout almost the whole song.
*The Tuning is Drop Db, partial capo II: (low to high: Db-Ab-Db-Gb-Bb-Eb) *6th
string is not capoed; place your capo from underneath the neck onto the first 5
strings. This would now make your open strings Db-Bb-Eb-Ab-C-F. If there are any

Capo II; first 5 strings only!
Eb|----------------------------------|---------------------------------|
Bb|----------------------------------|---------------------------------|
Gb|---------0------0---2-------0---0-|---------0-----0---2-------0---0-|
Db|-0h2---2----2-----------0---------|-0h2---3---2-----------0---------|
Ab|-----3---3----3-------3---3---3---|-----2---3---3-------3---3---3---|
Db|-0----------------0---------------|-0---------------0---------------|


Eb|---------------0-----------------0h1p0---0-----------------------------|
Bb|-------1-----------1-------1-----------------0h1p0-------0h1-----1-----|
Gb|-0h2-------0h2---------2-------2---------------------2-------2-------2-|
Db|-3-----------3-------3-----------------3-----------3---3-------3-------|
Ab|-----3---3-------3-------3---3---3---------3---------------3-------3---|
Db|-----------------------------------------------------------------------|


The first chord strummed which lies directly between the end of the first verse
and the beginning of the first chorus is what I think would be called F#maj7/Db. *This
chord is strummed with the same tuning as what is written above along with the capo still
only on the first 5 strings! A second guitar is getting an F# as a bass note that can be 
played by placing your thumb over the low Db string at the 5th fret. **(Notice how this
is the ACTUAL 5th fret because there is no capo on the 6th string.)

Eb|0
Bb|1
Gb|2
Db|3
Ab|3
Db|-

Also, here is a riff which is used a lot in this song as a bit of a transition.
*This riff is played with the same tuning as what is written above along with the capo
still only on the first 5 strings!

Eb|---------|
Bb|---------|
Gb|---------|
Db|---0-2-3-|
Ab|-3-------|
Db|---------|

The chords that go along with this riff are:

Eb|-------0-|
Bb|-1-3-0-1-|
Gb|-0-2-0-2-|
Db|-2-0-2-3-|
Ab|-3-------|
Db|---------|
            

comments powered by Disqus
↑ Back to top | Zac Brown Band Tabs for Free. Lyrics for acoustic guitar and electric guitar. Tablatures and chords are parodies/interpretations of the original songs. You may use it for private study, scholarship, research or language learning purposes only