» » »

Yui, Its All Too Much Tabs (ver.1)

Artists:  A B C D E F G H I J K L M N O P Q R S T U V W X Y Z # 

Its All Too Much Tabs (ver.1)

Yui Tabs
 Rating:
4/5 (4 votes)
Its All Too Much lessons Tabs too difficult? Try these video lessons and learn fast
                (Intro)
Intro - Guitar 01:

|--5-5-8-5-----7--------------------8-7-5---|
|----------8-8---8---6-6-10-6-12-8----------|
|-------------------------------------------|
|-------------------------------------------|
|-------------------------------------------|
|-------------------------------------------|

(Guitar 02 starts at the same time as the following:)

|--5-5-8-5-----7-----------8--7-------------|
|----------8-8---8---6--8-------------------|
|-------------------------------------------|
|-------------------------------------------|
|-------------------------------------------|
|-------------------------------------------|

Intro - Guitar 02:

|--7-8-7------------------------------------|
|--------8-6-5---5-------5------------------|
|------------------7-5-3--------------------|
|-------------------------------------------|
|-------------------------------------------|
|-------------------------------------------|

Other Parts:
(this part is a Piano, but I think that, maybe, you want to do it with the guitar...)

After YUI sings "yoru sa" (play), "shinjitsu wo" (play), "kimete" (play), "ruuru bukku" 
play this:
|---------------------|
|-----------6-5-------|
|---5-5-7-5-----5-7---|
|---------------------|
|---------------------|
|---------------------|

After YUI sings "Benchi de" (play), "sekirara" (play) play this:
|---------------------|
|---5-6-8-6-5---------|
|-------------5-7-----|
|---------------------|
|---------------------|
|---------------------|

(Back to "real guitar" parts)
Before the chorus do this:
|--------------|
|-/9-/7--------|
|------/9-/7---|
|--------------|
|--------------|
|--------------|
            
Submit corrections

comments powered by Disqus
↑ Back to top | Yui Tabs for Its All Too Much. Lyrics for acoustic guitar and electric guitar. Tablatures and chords are parodies/interpretations of the original songs. You may use it for private study, scholarship, research or language learning purposes only