>
 >
Forever Young 1

Forever Young 1 Guitar Tabs

Youth Group - Forever Young 1 chords, tabs, tablatures, lyrics

Guitar lessons | Add/correct | Request | Top 50 tabs Artists:  A B C D E F G H I J K L M N O P Q R S T U V W X Y Z 0-9

Forever Young 1 Guitar Tabs – Youth Group

CD, Sheet music, Poster

Do you like Forever Young 1? Share with your friends now
ChordsChords v2Chords v3TabsTabs v2Tabs v3Tabs v4Ukulele
Band: Youth Group
Capo 4th Fret

Im going to show a couple different ways to play the intro/verse/chorus so yeah.


e[-----------------------------------------------]
B[-----3-----3---3-----3-----3---3---------------]
G[-0-0---0-0---0---0-0---0-0---0-----(x2)--------]
D[-----------------------------------------------]
A[-----------------------------------------------]
E[-----------------------------------------------]

e[--------------------------------------------------------------------]
B[-----0-----0---0-----0-----0---0------0-----0---0-----0-----0---0---]
G[--------------------------------------------------------------------]
D[-2-2---2-2---2--------------------0-0---0-0---0---2-2---2-2---2-----]
A[-----------------3-3---3-3---3--------------------------------------]
E[--------------------------------------------------------------------]

e[-----------------------------------------------]
B[-----0-----0---0-----0-----0---0---------------]
G[-----------------------------------------------]
D[-----------------------------------------------]
A[-3-3---3-3---3---3-3---3-3---3-----------------]
E[-----------------------------------------------]


--------OR FOR THE INTRO(IF YOU PREFER)--------------

ps. keep in mind that the capo IS on 4th fret, also that the zero on the B string is 
i think it sound nicer though thats why I put it

e[-----------------------------------------------]
B[-----------------------------------------------]
G[-----7-----7---7-----7-----7---7---------------]
D[-5-5---5-5---5---5-5---5-5---5-----------------]
A[--------------------------------(x2)-----------]
E[-----------------------------------------------]

e[----------------------------------------------------------------------]
B[-----0-----0---0------0-----0---0-----0-----0---0-----0-----0---0-----]
G[-----4-----4---4------4-----4---4-----4-----4---4-----4-----4---4-----]
D[-2-2---2-2---2--------------------0-0---0-0---0---2-2---2-2---2-------]
A[------------------3-3---3-3---3---------------------------------------]
E[----------------------------------------------------------------------]

e[-----------------------------------------------]
B[-----0-----0---0-----0-----0---0---------------]
G[-----4-----4---4-----4-----4---4---------------]
D[-----------------------------------------------]
A[-3-3---3-3---3---3-3---3-3---3-----------------]
E[-----------------------------------------------]



Chords Used:

G -     320033
G/F# -  200033
Em -    022000
Cadd9 - 032033
D/F# -  200230

Intro/Verse:

G		G/F#			Em
Let's dance in style, lets dance for a while

           Cadd9			D/F#
Heaven can wait we're only watching the skies

               Em                     Cadd9
Hoping for the best but expecting the worst

			 D/F#
Are you going to drop the bomb or not?


G	    G/F#		   Em
Let us die young or let us live forever

                 Cadd9			D/F#
We don't have the power but we never say never

		Em                 Cadd9
Sitting in a sandpit, life is a short trip

		     D/F#
The music's for the sad men


G	     G/F#       	  Em
Can you imagine when this race is won

	       Cadd9            D/F#
Turn our golden faces into the sun

		Em		    Cadd9
Praising our leaders we're getting in tune

			    D/F#
The music's played by the mad men

Chorus:

G           G/F#	 Em           Cadd9
Forever young, I want to be forever young

D/F#	        Em                 Cadd9     D/F#
do you really want to live forever, forever Forever

G           G/F#	 Em           Cadd9
Forever young, I want to be forever young

D/F#	        Em                 Cadd9     D/F#
do you really want to live forever, forever Forever


Instrumental

G, G/F#, Em, Cadd9, D/F#, Em, Cadd9, D/F# (play intro)


Verse:

G	       G/F#		        Em
Some are like water, some are like the heat

            Cadd9                  D/F#
Some are a melody and some are the beat

           Em 			 Cadd9
Sooner or later they all will be gone

		      D/F#
why don't they stay young


G	    G/F#		   Em
It's so hard to get old without a cause

		Cadd9			D/F#
I don't want to perish like a fleeing horse

		Em 	    Cadd9
Youth's like diamonds in the sun

		   D/F#
and diamonds are forever

G	       G/F#		      Em
So many adventures couldn't happen today

	 Cadd9	            D/F#
So many songs we forgot to play

	  Em			  Cadd9
So many dreams swinging out of the blue

		  D/F#
We let them come true


Chorus:

G           G/F#	 Em           Cadd9
Forever young, I want to be forever young

D/F#	        Em                 Cadd9     D/F#
do you really want to live forever, forever Forever

G           G/F#	 Em           Cadd9
Forever young, I want to be forever young

D/F#	        Em                 Cadd9     D/F#
do you really want to live forever, forever Forever


Instrumental : G, G/F#, Em, Cadd9, D/F#, Em, Cadd9, D/F# (x2)


Chorus:

G           G/F#	 Em           Cadd9
Forever young, I want to be forever young

D/F#	        Em                 Cadd9     D/F#
do you really want to live forever, forever Forever

G           G/F#	 Em           Cadd9
Forever young, I want to be forever young

D/F#	        Em                 Cadd9
do you really want to live forever, forever





Comments


Popular Youth Group tabs & chords
All This Will Pass Chords
Forever Young 1 Chords
Land Of No Return Chords
Lillian Lies Chords
See-saw Chords
Baby Body Tabs
Forever Young Intro 1 Tabs
Shadowland Tabs
Lillian Lies Ukulele
Sicily Ukulele


Song lyrics



↑ Back to top | Tablatures and chords are parodies/interpretations of the original songs. You may use it for private study, scholarship, research or language learning purposes only
© 2014 AZChords.com Contact us | Privacy policy | DMCA | Add/correct tabs | Request tabs | Top 50 tabs