» » »

Youth Group, Forever Young Tabs (ver.1)

Artists:  A B C D E F G H I J K L M N O P Q R S T U V W X Y Z # 

Forever Young Tabs (ver.1)

Youth Group Tabs
 Rating:
4/5 (8 votes)
Forever Young lessons Tabs too difficult? Try these video lessons and learn fast
1
                
"Forever Young"
(originally by Alphaville)

Standard Tuning

I had this tabbed out earlier, then I saw the versions that were already up and I'm 
sure mine is more accurate.  Three guitars are playing throughout the whole song.  I've 
out parts of each.  Everything but the rhythm you can kinda improv and play around with.


Intro:
During this and kinda through the whole song there should be another guitar using a 
effect that plays the B string something like
--7-----0-----2-----0-----2-----7 and so on.  There's too much going on during the 
for me to hear it.

Gt.1
------2-------2---2---2-------2-------2---2---2----------------------------|
------------------------------------------------------4-------4---4---4----|
-4-4-----4-4----4---4----4-4-----4-4----4---4----1-1-----1-1----1---1------|
---------------------------------------------------------------------------|
---------------------------------------------------------------------------|
---------------------------------------------------------------------------|


---------------------------------------------------------------------------|
------4-------4----4---4-------4-------4-------4-------4---4---4------4----|
------------------------------------------1-1-----1-1----1---1-------------|
-2-2-----2-2-----2---2----4-4-----4-4-----------------------------2-2------|
---------------------------------------------------------------------------|
---------------------------------------------------------------------------|

Gt. 1
---------------------------------------------------------------------------|
------4----4---4-------4-------4----4---4----------------------------------|
---------------------------------------------------------------------------|
-2-2-----2---2----2-2-----2-2-----2---2------------------------------------|
---------------------------------------------------------------------------|
---------------------------------------------------------------------------|

Gt. 2
---------------------------------------------------------------------------|
--------------------------------2------2-----------------------------------|
-----------------------------/4----4-4-------------------------------------|
---------------------------------------------------------------------------|
---------------------------------------------------------------------------|
---------------------------------------------------------------------------|


For the 1st verse that whole thing is repeated a couple of times, minus the little 
2 part.  For the second verse and throughout the song they play around with that scale
while guitar plays the bar chords, adding notes here and there, but that's pretty mucð
what the intro is.  Listen to the song for timing, because I don't feel like showing
where it with the words.  It should be self-explanatory.

Verse:

B   G#m    F#   G#m

Chorus:

B         F#          G#m           E
Forever young, I wanna be forever young,

F#                  G#m            E
Do you really wanna live forever? forever, forever


Solo:
Play the chorus chords twice through.  And I don't feel like tabbing out that solo right 
so maybe for another time.
            
Submit corrections

comments powered by Disqus
↑ Back to top | Youth Group Tabs for Forever Young. Lyrics for acoustic guitar and electric guitar. 1 Tablatures and chords are parodies/interpretations of the original songs. You may use it for private study, scholarship, research or language learning purposes only