>
 >
Typhoon

Typhoon Guitar Tabs

Young The Giant - Typhoon chords, tabs, tablatures, lyrics

Guitar lessons | Add/correct | Request | Top 50 tabs Artists:  A B C D E F G H I J K L M N O P Q R S T U V W X Y Z 0-9

Typhoon Guitar Tabs – Young The Giant

CD, Sheet music, Poster

Do you like Typhoon? Share with your friends now
ChordsTabsUkulele
-----------------------------------------------------------------------------
                             "Typhoon" - Young The Giant
-----------------------------------------------------------------------------

Tuning: D A D F# a d  6/8, 153bpm

Verse 1

"Over, and over, and over again..."

d|------0------------------------------+12----------------------------------|
a|-2------2---------0------------------+12----------------------------------|
F#|------------2------2---------0------+12----------------------------------|
D|-2--2--------------------2------2----+12----------------------------------|
A|-------------2--2--------------------+12----------------------------------|
D|-------------------------2--2--------+12----------------------------------|

d|--------------------------------------------------------------------------|
a|--------0---------------0---------------0---------------0-----------------|
F#|------------2----------------2 p 0----------0---------------0------------|
D|--0---------------0---------------0---------------0-----------------------|
A|--0---------------0---------------0---------------0-----------------------|
D|--0--0----0-------0--0----0-------0--0----0-------0--0----0---------------|



Pre-Chorus - "At night when the coastline breaks..."

d|---0-----0-----0-----0----0------------------0------0-----0---------------|
a|---2-----2-----2-----2----2-----------0------0------0--0--0---------------|
F#|--0-----0-----0--0--0--0-0----0------0------0------0--0--0---------------|
D|---0---0---0---0--0--0--0-0----0------0------0------0--0--0---------------|
A|---2---2---2---2--2--2--2-2----0---0-----0---0------0--0--0---------------|
D|-------------------------------0---0-----0---0---0------------------------|

d|---------------0-----0----0------------------0-----0----0-----------------|
a|---------2-----2-----2----2-----------2------2-----2----2-----------------|
F#|--------0-----0-----0----0-----------0------0-----0----0-----------------|
D|---0-----0-0---0--0--0--0-0----0------0--0---0--0--0--0-0-----------------|
A|---x-----------x--x-----x-x----x-------------x--x-----x-x-----------------|
D|---5---5---5---5--5-----5-5----5---5-----5---5--5-----5-5-----------------|



Chorus - "On the rise.."

d|---5------------5------5--5----5------5-----5------5--5-------------------|
a|---5------5-----5------5--5----5------5-----5------5--5-------------------|
F#|--5------5-----5------5--5----5------5-----5------5--5-------------------|
D|---5---5--5-5---5---5--5--5----5---5--5-----5------5--5-------------------|
A|---5---5----5---5---5--5--5----5---5----5---5------5--5-------------------|
D|---5---5----5---5---5----------5---5----5---5---5-------------------------|

d|----------------0------0--0----0------0-----0--0-------0-------0----------|
a|----------0-----0------0--0----0------0-----0--0-------0-------0----------|
F#|--0------0-----0------0--0----5---5--5--5--5//12--12--12--12--12---------|
D|---0------0-----0------0--0----0---0--0--0--0--0---0---0---0---0----------|
A|---0---0----0---0------0--0----2---2--2--2--2//9---9---9---9---9----------|
D|---0---0----0---0---0-----------------------------------------------------|

d|---5------------5------5--5----5------5-----5------5--5-------------------|
a|---5------5-----5------5--5----5------5-----5------5--5-------------------|
F#|--5------5-----5------5--5----5------5-----5------5--5-------------------|
D|---5---5--5-5---5---5--5--5----5---5--5-----5------5--5-------------------|
A|---5---5----5---5---5--5--5----5---5----5---5------5--5-------------------|
D|---5---5----5---5---5----------5---5----5---5---5-------------------------|


d|----------------0------0--0----0------0-----0--0-------0-------0----------|
a|----------0-----0------0--0----0------0-----0--0-------0-------0----------|
F#|--0------0-----0------0--0----5---5--5--5--5--12--12--12--12--12---------|
D|---0------0-----0------0--0----0---0--0--0--0--0---0---0---0---0----------|
A|---0---0----0---0------0--0----2---2--2--2--2--9---9---9---9---9----------|
D|---0---0----0---0---0-----------------------------------------------------|


d|---5------------5------5--5----5------5-----5------5--5-------------------|
a|---5------5-----5------5--5----5------5-----5------5--5-------------------|
F#|--5------5-----5------5--5----5------5-----5------5--5-------------------|
D|---5---5--5-5---5---5--5--5----5---5--5-----5------5--5-------------------|
A|---5---5----5---5---5--5--5----5---5----5---5------5--5-------------------|
D|---5---5----5---5---5----------5---5----5---5---5-------------------------|


d|----------------0------0-----0---0------------0------0-----0----5~~~~
a|----------0-----0------0--0--0---0------0-----0------0-----0----5~~~~ let
F#|--0------0-----0------0--0--0---2------2-----2------2-----2----5~~~~ ring
D|---0------0-----0------0--0--0---2---2--2-2---2---2--2--2--2----5~~~~
A|---0---0----0---0------0--0--0---x---x----x---x---x--x--x--x----5~~~~
D|---0---0----0---0---0--------0---2---2----2---2---2-----2--2----0~~~~


Verse 2 -

(instrumental) See below for piano parts, which can be played on guitar.

d|------0------------------------------+12----------------------------------|
a|-2------2---------0------------------+12----------------------------------|
F#|------------2------2--------0-------+12----------------------------------|
D|-2--2--------------------2------2----+12----------------------------------|
A|-------------2--2--------------------+12----------------------------------|
D|-------------------------2--2--------+12----------------------------------|

(This part is in 7/4) Dig that tambourine? Me too
d|--------0-------------0---------------------0-------------0---------------|
a|------------4-------------0---------------------4-------------0-----------|
F#|----------------0-------------0---------------------0-------------0------|
D|--0-----------------------------------0-----------------------------------|
A|--0-----------------------------------0-----------------------------------|
D|--0--0---(0)--(0)--0--(0)--(0)--------0--0---(0)--(0)--0--(0)--(0)--------|


Vocals come in here
"Over, and over, and over again..."
d|------0------------------------------+12----------------------------------|
a|-2------2---------0------------------+12----------------------------------|
F#|------------2------2--------0-------+12----------------------------------|
D|-2--2--------------------2------2----+12----------------------------------|
A|-------------2--2--------------------+12----------------------------------|
D|-------------------------2--2--------+12----------------------------------|

"Oh, the sun! Oh, the sun!"
d|--------0----------------------------0------------------------------------|
a|------------0----------------------------0--------------------------------|
F#|----------------0---0-0-0--------------------0---0-0-0-------------------|
D|--0------------------0-0-0-----0------------------0-0-0-------------------|
A|--0------------------0-0-0-----0------------------0-0-0-------------------|
D|--0--0---(0)--(0)--0-0-0-0-----0--0---(0)--(0)--0-0-0-0-------------------|

"I give up my water and watch you sink...in.."
d|------0------------------------------+12----------------------------------|
a|-2------2---------0------------------+12----------------------------------|
F#|------------2------2--------0-------+12----------------------------------|
D|-2--2--------------------2------2----+12----------------------------------|
A|-------------2--2--------------------+12----------------------------------|
D|-------------------------2--2--------+12----------------------------------|

"Oh, mama! Oh, mama!"
d|---------0------------------------0-----------------|
a|------------0------------------------0--------------|
F#|--------------0--0-0-0-----------------0--0-0-0----|
D|--0-0-0----0------0-0-0----0-0-0----0------0-0-0----|
A|--0-0-0----0------0-0-0----0-0-0----0------0-0-0----|
D|--0-0-0----0--0---0-0-0----0-0-0----0--0---0-0-0----|


Bridge
"Ooohs"
d|-------0---------0---------0---------0----------|
a|---4~~-------4~~-----------4~~-------4~~--------|
F#|--3~~---3---3~~---3-------3~~---3---3~~---3----|
D|---4~~-------4~~-----------4~~-------4~~--------|
A|---2~~-------2~~-----------2~~-------2~~--------|
D|------------------------------------------------|

d|---0------------0------0------0------0------0~
a|---0------0-----0------0------0------0------0~
F#|--2------2-----2------2------2------2------0~
D|---2---2--2-2---2---2--2--2---2---2--2--2---4~
A|---x---x----x---x---x--x--x---x---x--x--x---0~
D|---2---2----2---2---2-----2---2---2--2--2---0~

Here is the piano part for the second verse.

d|--------12-------------------------------------+12------------------------|
a|-14--------14----------12----------------------+12------------------------|
F#|---------------14--------14----------12-------+12------------------------|
D|-14--14------------------------14--------14----+12------------------------|
A|----------------14--14-------------------------+12------------------------|
D|-------------------------------14--14----------+12------------------------|

Here is the piano solo during the bridge

d|--------------------------------------------------------------------|
a|-------------9---------------------7--------------------------------|
F#|--7--8--10-----7~~~--8p7-------------------------------------------|
D|--------------------------7-6--7-------7---6---7---4----------------|
A|--------------------------------------------------------------------|
D|--------------------------------------------------------------------|

So.. Here's the order of the parts.

Verse 1
Verse 1
Pre-Chorus x2
Chorus x2
Verse 2
Pre-Chorus x2
Chorus x2 *instead of letting the 055555 chord ring, go right to the bridge
Bridge x4
Chorus x2

Happy playing!



| p   pull-off
| +   harmonic
| x   Mute note
| ~   Let ring





Comments


Popular Young The Giant tabs & chords
My Body 1 Bass Tabs
Cough Syrup 2 Chords
Crystallized 1 Chords
I Got 3 Chords
Mind Over Matter Chords
My Body 1 Chords
Typhoon Chords
Apartment Tabs
Its About Time Tabs
My Body Tabs


Song lyrics



↑ Back to top | Tablatures and chords are parodies/interpretations of the original songs. You may use it for private study, scholarship, research or language learning purposes only
© 2014 AZChords.com Contact us | Privacy policy | DMCA | Add/correct tabs | Request tabs | Top 50 tabs