» » »

Young The Giant, I Got Tabs (ver.1)

Artists:  A B C D E F G H I J K L M N O P Q R S T U V W X Y Z # 

I Got Tabs (ver.1)

Young The Giant Tabs
Rating:
0/5 (0 votes)
I Got lessons Tabs too difficult? Try these video lessons and learn fast
                
INTRO: GUITARS 1&2

e     --------\-------/-------\-------/------------------------|
B     13 -----\11-----/13-----\11-----/13--13-13-13-13-13-13---|
G    12 -----\10-----/12-----\10-----/12--12-12-12-12-12-12----|
D    13 -----\11-----/13-----\11-----/13--13-13-13-13-13-13----|
A    --------\-------/-------\-------/-------------------------|
E     11 -----\9------/11-----\9------/11--11-11-11-11-11-11---|



GUITAR 1 INTRO

e    -------------------------------------------------------|
B    -------------------------------------------------------|
G    ---5-5555----5----------5-5555----5--------------------|              (2x)
D    ---6-6666----6-5555---- 6-6666----6-5555---------------|
A    ----------------6666-4444-4444-4444-6666---------------|
E    4444-4444-4444-4444------------------------------------|

GUITAR 2 INTRO

e    -------------------------------------------------------|
B    --------13-13 13 13 13---------13-13 13 13 13----------|
G   --------13-13 13 13 13---------13-12 12 12 12-----------|          (4x)
D    -------------------------------------------------------|
A   11 11 11 11-11 11 11 11-11 11 11 11-11 11 11 11---------|
E   --------------------------------------------------------|


VERSE GUITAR 1

e    -------------------------------------------------------|
B    -------------------------------------------------------|
G    ---5-5555----5----------5-5555----5--------------------|              (4x)
D    ---6-6666----6-5555---- 6-6666----6-5555---------------|
A    ----------------6666-4444-4444-4444-6666---------------|
E    4444-4444-4444-4444------------------------------------|


VERSE GUITAR 2

e    -------------------------------------------------------|
B    -------------------------------------------------------|
G    ---5-5555----5----------5-5555----5--------------------|              (2x)
D    ---6-6666----6-5555---- 6-6666----6-5555---------------|
A    ----------------6666-4444-4444-4444-6666---------------|
E    4444-4444-4444-4444------------------------------------|

e    8----/11----\4----4-3/8--11-18-16~~~~----|
B    -------------------------11-18-16~~~~----|
G   ------------------------------------------|
D   ------------------------------------------|
A   ------------------------------------------|
E   ------------------------------------------|


PRE-CHORUS GUITAR 1

e     --------\-------/-------\---|
B     13 -----\11-----/13-----\11-|
G    12 -----\10-----/12-----\10--|
D    13 -----\11-----/13-----\11--|
A    --------\-------/-------\----|
E     11 -----\9------/11-----\9--|

PRE-CHORUS GUITAR 2

e    ---11-18---20-16-15-13-6--|
B    -11-----------------------|
G   8--------------------------|
D   ---------------------------|
A   ---------------------------|
E   ---------------------------|



CHORUS
You can use chords for this. It sounds better to use barre chords.


A-Cm-Db-Eb                 (2x)
            

comments powered by Disqus
↑ Back to top | Young The Giant Tabs for I Got. Lyrics for acoustic guitar and electric guitar. Tablatures and chords are parodies/interpretations of the original songs. You may use it for private study, scholarship, research or language learning purposes only