» » »

Needle And The Damage Done Tabs (ver.2)

Artists:  A B C D E F G H I J K L M N O P Q R S T U V W X Y Z # 

Needle And The Damage Done Tabs (ver.2)

Young Neil
Rating:
0/5 (0 votes)

Hard to play? Try these video lessons and learn fast.
                "(1)
The Needle and the Damadge done - Written by Neil Young


Standard Tunning (e-a-d-g-b-e)

e:|--2-0-----|----0-----|----0-----|----0-----|-------------|----------|
b:|------3-3-|--3---3-3-|--3---3-3-|--3---3-3-|--1----1-1-1-|--1-1-1---|
g:|----------|----------|----------|----------|--------0-2--|-3-2-3-0--|
d:|-0-0-0-0--|---0-0-0--|---0-0-0--|---0-0-0--|-------------|--------3-|
a:|----------|-3--------|-2--------|-1--------|----0h2------|----------|
e:|----------|----------|----------|----------|-3-----------|----------|
   
e:|----------|----------|----------|
b:|--0---0-0-|--0---0-0-|----------|
g:|-2--2-----|-0h1---1--|----------|
d:|---2---2--|---2---2--|-s5-4-2-0-|
a:|-----2----|-----2----|----------|
e:|----------|----------|----------|

Thatz all... 


If you copy this please give me credit...
"            
Hard to play? Try these video lessons and learn fast. | Correct




comments powered by Disqus
↑ Back to top | Tablatures and chords are parodies/interpretations of the original songs. You may use it for private study, scholarship, research or language learning purposes only