» » »

Young Neil, Cinnamon Girl Chords (ver.1)

Artists:  A B C D E F G H I J K L M N O P Q R S T U V W X Y Z # 

Cinnamon Girl Chords (ver.1)

Young Neil Tabs
Rating:
0/5 (0 votes)
Cinnamon Girl lessons Tabs too difficult? Try these video lessons and learn fast
                CINNAMON GIRL- Neil Young

TUNING: D A D G B D

INTRO (twice)

D5                     Am7
I want to live with a Cinnamon Girl
C                    G
I could be happy the rest of my life 
       D  F  G  C D(2) CaddD Cmaj9 CaddD F6
With a Cinnamon Girl
D                       CaddD
A dreamer of pictures I run in the night
F6                   G
You see us together chasin the moonlight 
    D F  G  C D(2) CaddD Cmaj9 CaddD F6
My Cinnamon Girl

INTRO (four times)

Ten silver saxes, a bass with a bow
The drummer relaxes and waits between shows for his Cinnamon Girl
A dreamer of pictures, I run in the night
You see us together chasin' the moonlight my Cinnamon Girl

INTRO (four times)

BRIDGE:
C
Ma send me money now I'm gonna make it somehow
                 Gm7
I need another chance
                           Am7(2)
You see your baby loves to dance yeah , yeah, yeah

SOLO (over verse)


INTRO:
D -5s7-7-7-7-7--------------
B -5s7-7-7-7-7--3-3-3-3----- 
G -5s7-7-7-7-7--2-2-2-2-----
D --------------0----------- 
A --------------3-2-0-------
D --------------------3-3-5- 

CHORDS:
   D5 Am7 CaddD  F6  G   D  F  G  C  D(2)  Gm7 Am7(2)
D --0--0----0----0---0------------5---7-----3---0-----
B --3--1----1----1---3------------5---7-----3---5-----
G --2--0----0----2---4------------5---7-----3---6-----
D --0--2----2----3---5---0--3--5------------5---7-----
A --0--0----3----3---5---0--3--5------------5---7-----
D --0------------3---5---0--3--5----------------7-----
            

comments powered by Disqus
↑ Back to top | Young Neil Chords for Cinnamon Girl. Lyrics for acoustic guitar and electric guitar. Tablatures and chords are parodies/interpretations of the original songs. You may use it for private study, scholarship, research or language learning purposes only