» » »

Young Neil, Like A Hurricane Tabs (ver.2)

Artists:  A B C D E F G H I J K L M N O P Q R S T U V W X Y Z # 

Like A Hurricane Tabs (ver.2)

Young Neil Tabs
 Rating:
4/5 (4 votes)
Like A Hurricane lessons Tabs too difficult? Try these video lessons and learn fast
1
                Neil Young
Like A Hurricane

Chords used:
Am: X02210
G:  320033
F:  133211
Em: 022000
C:  X32010

This is my first tab, so please try to bare with me...

Intro: This is the live version style intro
|-0-------------0--------------------------------|
|---3-1-0---0-1---3-1-0-1-3-3\5/3-1-1-0-----0-1-0|
|---------2-----------------------------2-2------|
|------------------------------------------------|
|------------------------------------------------|
|------------------------------------------------|

|-0----------------------------------------------|
|---3-1-0---0----1-3-1-0-1-3---3-1-0-----0-------|
|---------2--------------------------2-2---------|
|------------------------------------------------|
|------------------------------------------------|
|------------------------------------------------|

As for the verses, the chord progression is:

Am G F Em

Play those through 2 times for each verse.

The chorus goes:

 C   G   F          G
You are like a hurricane
C       G    F        G   Fill: A|-0-2-3-|
There’s calm in your eyes
C   G    F            G
And I’m gettin’ blown away
                                        A|-0-2-3-|
Somewhere safer where the feelin’ stays 
F                       Am  G  F     Em  G
I wanna love you, but I get so blown away

Each time he plays the solo, it’s different but here
Are the parts that usually show up in all the versions:

Part 1:
|------------------------------------------------|
|-3\5-5-5-5-5-5-3------1\3-3-3-3-3-3-1-----------|
|-----------------5-4------------------4-2-------|
|------------------------------------------------|
|------------------------------------------------|
|------------------------------------------------|

|------------------------------------------------|
|-0h1-1-1-1-1-1-0--------------------------------|
|-----------------2-0----------------------------|
|------------------------------------------------|
|------------------------------------------------|
|------------------------------------------------|

Part 2: (4x)
|-------------------5-|
|-3\5-5-5-5-5-5-3-----|
|-----------------5---|
|---------------------|
|---------------------|
|---------------------|

Part 3:
|-17-17-17-17-17-17-17-17-15-15-15-15-15-15-15-15-|
|-------------------------------------------------|
|-------------------------------------------------|
|-------------------------------------------------|
|-------------------------------------------------|
|-------------------------------------------------|

|-13-13-13-13-13-13-13-13-12-12-12-12-12-12-12-12-|
|-------------------------------------------------|
|-------------------------------------------------|
|-------------------------------------------------|
|-------------------------------------------------|
|-------------------------------------------------|

It’s not everything, but it’s more than anything else
On the net..
            
Submit corrections

comments powered by Disqus
↑ Back to top | Young Neil Tabs for Like A Hurricane. Lyrics for acoustic guitar and electric guitar. 1 Tablatures and chords are parodies/interpretations of the original songs. You may use it for private study, scholarship, research or language learning purposes only