» » »

Young Neil, Hey Hey My My Tabs (ver.1)

Artists:  A B C D E F G H I J K L M N O P Q R S T U V W X Y Z # 

Hey Hey My My Tabs (ver.1)

Young Neil Tabs
 Rating:
4/5 (4 votes)
Hey Hey My My lessons Tabs too difficult? Try these video lessons and learn fast
                |> 
|> Ok It's at nevada but here you go....
|> 
|> riff:
|> D--------0--0----------
|> A--0-2-3------3-2-0----
|> 
|> riff 2 (right after riff 1)
|> d--------0--0h2p0------
|> A--0-2-3----------3-2-0

Are you sure it's not like this?:

riff 1:
D------------0-----------
A--0---0-2-3-----2-0---0-
E--------------------3---

riff 2:
D-----------0---0h2p0---0---
A-0---0-2-3-----------3---0-
E---------------------------

	I agree with the second version here. And, (just to add to the
confusion), I think there's a third riff I've heard that works off the C
chord in the song. Like this:
riff 3:
G-------------0---2-0--------------
D---------0-2---------2------------
A-3----3-----------------3---3-2-0-
E----------------------------------
	If you've got another guitarist around, one guy can play the
riffs while the other does the Am -G-F-Am, C-Am-F chords. Hope this
helps
            
Submit corrections

comments powered by Disqus
↑ Back to top | Young Neil Tabs for Hey Hey My My. Lyrics for acoustic guitar and electric guitar. Tablatures and chords are parodies/interpretations of the original songs. You may use it for private study, scholarship, research or language learning purposes only