>
 >
Harvest Moon 2

Harvest Moon 2 Guitar Tabs

Young Neil - Harvest Moon 2 chords, tabs, tablatures, lyrics

Guitar lessons | Add/correct | Request | Top 50 tabs Artists:  A B C D E F G H I J K L M N O P Q R S T U V W X Y Z 0-9

Harvest Moon 2 Guitar Tabs – Young Neil

CD, Sheet music, Poster

Do you like Harvest Moon 2? Share with your friends now
ChordsTabsTabs v2Tabs v3


A correction to your posting of Niel Young's "One of These Days"

 Chorus:(wrong /as posted)
 /A            /F#m        /Em                 /
 One of these days I'm going to sit down and write a long letter
 /A           /F#m                /D     /
 to all the good friends I've known.
 /A           /F#m   /A           /F#m  /A           /F#m
 One of these days, One of these days, One of these days
        /D               /E
 And it won't be long It won't be long.


 Chorus:(right)
 /A           /    /Em                       /
 One of these days I'm going to sit down and write a long letter
 /D           /                   /Bm     /
 to all the good friends I've known.
 /A           /F#m   /A           /F#m  /A           /F#m
 One of these days, One of these days, One of these days
        /D               /E
 And it won't be long It won't be long.

Also, instad of playing the very plain F#m throughout the song, use instead
F#mb5maj7
This is also referred to as a half-diminished  (F#-1/2dim)

   F#mb5maj7   play all 6 strings
e|-----|-----|-----|-----|
b|-----|-----|-----|-----|
g|-----|--1--|-----|-----|
d|-----|-----|-----|--4--|
a|-----|-----|-----|--3--|
E|-----|--T--|-----|-----|

 Peace, Love, Skiing, Climbing & Guitar-Picking
  Mitch Thornton

 
@7
lyrics: from the c-d sleeve
music: audio
corrections: invited

Such a Woman : Neil Young : Harvest Moon


[Bb] [Dm] [xx1331] [Bb/D] [F] [Bb]

[Bb]You are such a [Dm]woman to [1331]me,

and [Bb/D]I [F]love [Bb]you

[Bb]Our love, will [Dm]live [1331]

until the [Bb/D]end [F]of [Bb]time

[F]No one else, [Bb]can [D#]kill [Bb]me [Gm]like you [F]do

[F]No one else, [Bb]can [D#]fill [Bb]me [Gm]like you [F]do

and [Bb]no - one [Gm]else, can [D#]feel [F]our [Bb]pain


[Bb]Love is a [Dm]healer, [1331] and [Bb/D]I [F]love [Bb]you.


[C] [Em] [3553] [C] [G] [C]

[G]No one else [C]can [F]fill [C]me [Am]like you [G]do

[G]No one else [C]can [F]fill [C]me [Am]like you [G]do

And [C]I [Am] [F]love [G] [C]you.


[Bb]You are such a [Dm]woman, to [1331]me. [Bb/D] [F] [Bb]

------
playing sequence:
Part I x3  (Intro, v1 v2)
Part II x2 (No one else...)
Part III   (....feel our pain.)
Part I     (Love is a a healer...)
Part IV    (harmonica solo at C)
Part V     (No one else...) 
Part VI    (move back to Bb)
Part I     (You are...)
------

Part I x3
   Bb
E ------------------------------------------------
B -------3-----------3-----------3-----------3----
G ----3-----3-----3-----3-----3-----3-----3-----2- 
Part V

  G           C  F  C  Am    G
 -------------0--1--0--------3----------------- ||
 -3--3--3-----1--1--1--1-----3----------------- ||
 -0--0--0-----0--2--0--2--2--0----G chord------.||
 -0--0--0-----2--3--2-(2)-2--0--2 measures-----.||
 ----------------------------2----------------- ||
 ----------------------------3----------------- ||
  No oneelse  canfilme likyoudo
  No oneelse  cankilme likyoudo               And

  C                   Am                  F               Giii 
 -3-------------------0-------------------1---------------3--------------
 -1-------------------1-------------------1---------------3--------------
 -0--2 measures-------2----2 measures-----2---1 measure---4---1 measure--
 -2-------------------2-------------------3---------------5--------------
 -3-------------------0-------------------3---------------5--------------
 -3-------------------0-------------------1---------------3--------------
  I                                       love

Part VI

-------------------------------------------------
-------3-----------3-----------------------3-----
----5-----5-----5-----------5-----5-----5-----5--
----------------------5--3-----5-----5-----------
-3-----------3-----------------------------------
-------------------------------------------------
 you


[or alternatively...
 C
------------------------------------------------
----1--3--1-----1--3--------1-----1-----1--3--1-
----------------------0--------0----------------
-------------------------3-----------3----------
-3-----------3----------------------------------
------------------------------------------------
 you                                       ...]


 Part I

  Bb
 -------------------------------------------------
 -------3-----------3-----------3-----------3-----
 ----3-----3-----3-----3-----3-----3-----3-----3--
 -------------------------------------------------
 -1-----------1-----------1-----------1-----------
 -------------------------------------------------
  You         are                     such  a

 -------------------------------------------------
 -------3-----------3-----------3-----------3-----
 ----2-----2-----2-----2-----2-----2-----2-----2--
 -0-----------0-----------0-----------0-----------
 -------------------------------------------------
 -------------------------------------------------
  wom-        an                               to

 --------------------------------------------------
 -------3-----------3-----------3-----------3------
 ----3-----3-----3-----3-----3-----3-----3-----3--- 
 -1-----------1-----------1-----------1------------
 --------------------------------------------------
 --------------------------------------------------
  me                                          

              F           Bb
 ------------------------------------------------------------
 -3--3--3--3--1--1--1--1--------3-----------3-----------3----
 -3--3--3--3--2--2--2--2-----3-----3-----3-----3-----3-----3-
 -0--0--0--0--3--3--3--3-------------------------------------
 -------------------------1-----------1-----------1----------
 ------------------------------------------------------------

notes:
where it says (eg) 'F chord 2 measures' you can do a number of things-
usually on the piano, a chord is struck and held, so you may want
to do this. alternatively, play the chord arpeggio, or pinch it
in time with beat. whatever.... you decide :-)

@8
Old King

@9


Dreamin Man
Neil Young

Intro:
/G    /Em   /C   /C   /
/G    /Em   /C   /C   /

/G                /Em                /C    /C   /
I'm a dreamin' man, Yes that's my problem
/G                /Em                /C    /C   /
I can't tell when I'm not being real.
/G                /Em                /C    /C   /
In the meadow dusk, I park my Aerostar
/G                /Em                /C    /C   /
With a loaded gun and sweet dreams of you.

chorus:
     /G                   
I'll always be a dreamin man
/Em
I don't have to understand
/C             /D     /
I know it's alright

Repeat this instumental twice after each chorus:

Chord :G                   G  
Notes :     B C  D  C B         A B  C B  A 
  
Beat  :1 an 2 an 3 an 4 an 1 an 2 an 3 an 4 an 1 an 2 an 3 an 4

Chord :C      D            C      D            C      D

I see your curves and I feel your vibrations
You dress in black and white, your lost in the mall
I watch you disappear past "Club Med Vacations"
Another sleepless night a sun that won't fall

chorus

Now the night is gone, a new day is dawning.
And our homeless dreams go back to the street.
Another time or place, another civilization
would really make this life feel so complete

chorus

/G  /Em /C  /C                    /G  /Em /C  /C       
Dreamin Man (he's got a problem)  Dreamin Man  
/G  /Em /C  /C                    /G  /Em /C  /C       
Dreamin Man (he's got a problem)  Dreamin Man  
    

 try changing some of the Em to Em7, and C to C9 x32030

~Subject: Re: CRDS: DREAMIN MAN - NEIL YOUNG

it is tune down to D
the crds are 
G/ Em7/ CaddD/Csus2
G/F(as below)/C add D/C sus 2

---0---
---1---
---0---
---3---
---3---
---3---


@10
Natural Beauty - Neil Young
typed by Steve Vetter

*Important* - tune both "E" strings to "D"  or else it'll sound terrible

Chords:  Em7     222000 	022030
         Cmaj9   x32000  	x32030
         D       000230		000232
         C(addD) x32010 	x32030
         G       550000		350000
         Dsus4   x54030		x5403x x00233
         DaddE   xx0232		xx0230

Intro: 4x
Em7            Cmaj9
D              C(add9)

Em7                      Cmaj9
On the roller coaster ride
D                           CaddD
that my emotions have to take me on
Em7                      Cmaj9                   D               CaddD
I heard a newborn baby cry     through the night 
Em7                      Cmaj9
I heard a perfect echo die
D                        CaddD
Into an anonymous wall of digital sound
Em7                 Cmaj9       D                 CaddD
Somewhere deep inside     of my soul

G                         CaddD            Dsus4         G 
A natural beauty should be       preserved      like a monument
   CaddD      Dsus4
to na ------- ture
G                                    CaddD
Don't judge yourself  to harsh my love
  Dsus4                  G
or someday you might find your soul
  CaddD       Dsus4
endan ------- gered
G                         CaddD            Dsus4         G 
A natural beauty should be       preserved      like a monument
   CaddD      Dsus4
to na ------- ture


3x
Em7            Cmaj9
D              C(add9)

Em7              Cmaj9
Amazon 
D                          C
You had so much and now so much is gone
Em7                  Cmaj9                  D              CaddD
What are you gonna do        with your life?
Em7            Cmaj9
What a lucky man
D                                CaddD 
to see the earth before it touched his hand
Em7               Cmaj9           DaddE             CaddD
What an angry fool      to condemn        
Em7                Cmaj9
One more night to go
D                        CaddD
One more sleep upon your burning banks
Em7                      Cmaj9               D              CaddD
A greedy man  never knows      what he's done


G                         CaddD            Dsus4         G 
A natural beauty should be       preserved      like a monument
   CaddD      Dsus4
to na ------- ture
G                                    CaddD
Don't sell yourself to short my love
  Dsus4                  G
or someday you might find your soul
  CaddD       Dsus4
endan ------- gered
G                         CaddD            Dsus4         G 
A natural beauty should be       preserved      like a monument
   CaddD      Dsus4
to na ------- ture

Em7                   Cmaj9
Went to the rodeo today
D                           CaddD
I saw the cowgirls lined up on the fence
Em7                  Cmaj9      DaddE                           CaddD
A brand new Chevrolet               A brand new pair of seamless pants
Em7                           Cmaj9
We watched the moment of defeat
D                       CaddD           
Played back over on the video screen
Em7                 Cmaj9           D                 CaddD
Somewhere deep inside     of my soul


G                         CaddD            Dsus4         G 

   CaddD      Dsus4

G                                    CaddD

  Dsus4                  G

  CaddD       Dsus4

G                         CaddD            Dsus4         G 
A natural beauty should be       preserved      like a monument
   CaddD      Dsus4    G





Comments


Popular Young Neil tabs & chords
Coastline Chords
Helpless Chords
Hitchhiker Chords
On Broadway Chords
Razor Love Chords
Sail Away Chords
Theres A World Chords
Like A Hurricane Tabs
Southern Man Tabs
Through My Sails Tabs


Song lyrics



↑ Back to top | Tablatures and chords are parodies/interpretations of the original songs. You may use it for private study, scholarship, research or language learning purposes only
© 2014 AZChords.com Contact us | Privacy policy | DMCA | Add/correct tabs | Request tabs | Top 50 tabs