» » »

Young Neil, Dont Let It Bring You Down Tabs (ver.2)

Artists:  A B C D E F G H I J K L M N O P Q R S T U V W X Y Z # 

Dont Let It Bring You Down Tabs (ver.2)

Young Neil Tabs
 Rating:
3.4/5 (5 votes)
Dont Let It Bring You Down lessons Tabs too difficult? Try these video lessons and learn fast
                (Live)
Every string is tuned DOWN to:

Crazy Tuning: low A#  F  A#  D#  G  A#



intro riff:

|---------0--0--0---0------0--0--0--0------|-0---0--0--0---0-------------0--0--0----------|
|---------3--3--3---1------1--1--1--0------|-3---3--3--3---1-------------1--1--0----------|
|------2-----2--2---0------0--0--0--0------|-2---2--2--2---0-------------0--0--0----------|
|-0----0-----0--0---0------0--0--0--0------|-0---0--0--0---3-------------------3----------|
|-x-----------------3------------3--0------|-x--------------------------------------------|
|-0-----------------0----------------------|-0--------------------------------------------|



|-0---0--0--0---0-----0-------0--0--0------|-0---0--0--0---0-------------0--0--0----------|
|-3---3--3--3---1-----1-------1--1--0------|-3---3--3--3---1-------------1--1--0----------|
|-2---2--2--2---0-----0-------0--0--0------|-2---2--2--2---0-------------0--0--0----------|
|-0---0--0--0---2--------------------------|-0---0--0--0---3-------------------3----------|
|-x-------------3--------------------------|-x-------------3------------------------------|
|-0----------------------------------------|-0--------------------------------------------|

repeat second line twice with slight rhythm variations




 Old man sittin...
(------------slight palm mute-----------)

|---------------------------------------|---0----0---0--0--0--------|
|-------------3--3-------------3--3--3--|---6----6---6--6--6--------|
|-----2---2---2--2--2---2---2--2--2--2--|---5----5---5--5-----5-----|
|--0--0---0---0--0--0---0---0--0--0--0--|---0----0---0--0-------0---|
|--0--0---0---0-----0---0---0--0--0--0--|---------------------------|
|--0------------------------------------|---------------------------|

|-/7---7---7--7--7---7--7---7--7--|--------3------------5---5---5---|
|-/6---6---6--6--6---6--6---6--6--|--------3--3---------5---5---5---|
|-/7---7---7--7--7---7--7---7--7--|--3--3--3--3--5---5--5---5---5---|
|------0---0-----0---0--0---0--0--|--3--3--3--3--5---5--5---5---5---|
|---------------------------------|--5--5--5--5--7---7--7---7---7---|
|---------------------------------|---------------------------------|
                                    Repeat(no palm mute, strum fully)



Refrain 1

..bring you down...

|-----------0-------------0------|-----------0-------------0--------|
|--0----0---0--0---0--0---0--0---|--1----1---1--1---1--1---1--1-----|
|--0----0---0--0---0--0---0--0---|--0----0---0--0---0--0---0--0-----|
|--3----3---3--3---3--3---3--3---|--3----3---3--3---3--3---3--3-----|
|--2-----------2----------2------|--2-----------2----------2--------|
|--------------------------------|----------------------------------|


|-----------0-------------0------|
|--0----0---0--0---0--0---0--0---|
|--0----0---0--0---0--0---0--0---|
|--3----3---3--3---3--3---3--3---|    into intro riff
|--2-----------2----------2------|
|--------------------------------|


Second verse and refrain are the same as the first time around..
then the second chorus thing:



...down, its only castles...

|--0-----0-----------0----|------------0--------|--------------------|
|--3-----3-----3-----3----|------------3--------|--------------------|
|--0h2---0h2---0h2---0h2--|--0----0----0----0---|--------------------| back to intro riff
|--0-----0-----0-----0----|--0----0---------0---|--0----0----0----0--|
|-------------------------|--0h2--0h2-------2---|--2----2----2----2--|
|-------------------------|---------------------|--3----3----3----3--|


Play intro riff a few times, then the second chorus again then the harmonics!:


|----------------|-----------------------|
|----------------|-----------------------|
|----------------|-----------------------|
|----------------|-----------------------|
|-----------------------|-----------------------|
|-----------------------|-----------------------|


|----------------|-----------------------||
|----------------|-----------------------||
|----------------|-----------------------||
|----------------|-----------------------||
|-----------------------|-----------------------||
|-----------------------|-----------------------||


Lyrics:

Old man lying by the side of the road
With the lorries rolling by,
Blue moon sinking from the weight of the load
And the building scr*pe the sky,
Cold wind ripping down the alley at dawn
And the morning paper flies,
Dead man lying by the side of the road
With the daylight in his eyes.

Don't let it bring you down
It's only castles burning,
Find someone who's turning
And you will come around.

Blind man running through the light of the night
With an answer in his hand,
Come on down to the river of sight 
And you can really understand,
Red lights flashing through the window in the rain,
Can you hear the sirens moan?
White cane lying in a gutter in the lane,
If you're walking home alone.

Don't let it bring you down
It's only castles burning,
Just find someone who's turning
And you will come around.

Don't let it bring you down
It's only castles burning,
Just find someone who's turning
And you will come around.






| /  slide up
| \  slide down
| h  hammer-on
| p  pull-off
| ~  vibrato
|  harmonic
| x  Mute note
            
Submit corrections

comments powered by Disqus
↑ Back to top | Young Neil Tabs for Dont Let It Bring You Down. Lyrics for acoustic guitar and electric guitar. Tablatures and chords are parodies/interpretations of the original songs. You may use it for private study, scholarship, research or language learning purposes only