» » »

Young Neil, Cowgirl In The Sand Tabs (ver.2)

Artists:  A B C D E F G H I J K L M N O P Q R S T U V W X Y Z # 

Cowgirl In The Sand Tabs (ver.2)

Young Neil Tabs
Rating:
0/5 (0 votes)
Cowgirl In The Sand lessons Tabs too difficult? Try these video lessons and learn fast
                COWGIRL IN THE SAND BY NEIL YOUNG

I think this song is off "Everybody Knows This is Nowhere" album with Crazy
Horse but I'm not sure.  I got it off of Decade.  Here it is.


E--------------------------------|-------------------0---------|
B---------------0-------1--------|--------------1h3------------|
G---2----------------------------|-----------------------------|
D--------------------------2-----|--2--------------------2-----|
A---0-------0-------0---------0--|------3---0---------------0--|
E--------------------------------|-----------------------------|

E---------------------------------|-----------------------------|
B--3----------3-------------------|----3------1------0--1-------|
G----------------2---------2------|--2---------------------2p0--|
D------2------------2-------------|--------------------------0--|
A---------0------------0-------0--|--------0------0-------------|
E---------------------------------|-----------------------------|

E---------------0------------|-------------0---------0---------|
B--0---------3-----3---------|------3-------------------3------|
G--0--0-------------------0--|----------------0----------------|
D--2-------------------------|---------------------------------|
A----------------------2-----|--2-------2---------2---------2--|
E--0-----0-------------------|---------------------------------|

E----------------------------|--------------0------------0-----|
B--3-------------------------|--3-----------3------------------|
G-----0------------0--0------|------0-----------0-----------0--|
D-----------2----------------|---------------------2-----------|
A--------3-----3----------3--|----------3-------------3--------|
E----------------------------|---------------------------------|

E--0--------0--------0-----|--0----------------------------|
B-----------3--------3-----|-----3--------------------0h1--|
G-----0--------0--------0--|---------0------0---------0h2--|
D--------------------------|-------------------2------0h2--|
A--------3--------3--------|-------------2--------2--------|
E--------------------------|-------------------------------|

E--0---------------0------|------3--------0-------0-----|
B-----1-----1h3----1---1--|---------------1---3---1-----|
G-----2-----2----------2--|--2------2----------------2--|
D--------2----------------|--2------2--2----------------|
A-------------------------|-----------------------------|
E-------------------------|-----------------------------|

E---------------------------------|----------------------------|--0----------|
B--------0------------0-----------|------0-----0------0--------|--0----------|
G-----------2------------2-----2--|----------------------2-----|--2----------|
D-----2---------------------2-----|--2------2---------------2--|--2----------|
A--0------------------------------|----------------0-----------|--0----------|
E---------------------------------|----------------------------|-------------|


COMMENTS AND SUGGESTIONS:
ps. take it easy I'm only 15!

If you are interested in all the solos just e-mail me and I will send them
to you.
            

comments powered by Disqus
↑ Back to top | Young Neil Tabs for Cowgirl In The Sand. Lyrics for acoustic guitar and electric guitar. Tablatures and chords are parodies/interpretations of the original songs. You may use it for private study, scholarship, research or language learning purposes only