» » »

Young Love, Close Your Eyes Tabs (ver.2)

Artists:  A B C D E F G H I J K L M N O P Q R S T U V W X Y Z # 

Close Your Eyes Tabs (ver.2)

Young Love Tabs
 Rating:
3.8/5 (5 votes)
Close Your Eyes lessons Tabs too difficult? Try these video lessons and learn fast
1
                -------------------------------------------------------------------------------
-------------------------------------------------------------------------------



Tuning:
D, G, C, F, A, d

Structure:
Intro, Verse, Chorus, Verse, Chorus, Prebreakdown, Breakdown (part 1 + 2), Bridge, Chorus



Intro:

d|----------1----------1-------------------0---------0----------|
A|------1----------1----------1--------1----------1-------------|
F|---2---------2-----------2--------2----------2-----------2----|
C|--------------------------------------------------------------|
G|--------------------------------------------------------------|
D|--------------------------------------------------------------|

d|----------0----------0-------------------------------------------------|
A|------1----------1-------1--------------3-------------------1----------|
F|---0---------0---------------0--------------4-------------------2------|
C|-------------------------------------5------------5------3----------3--|
G|-----------------------------------------------------------------------|
D|-----------------------------------------------------------------------|


Verse x 2:

d|----------1----------1-------------------0---------0----------|
A|------1----------1----------1--------1----------1-------------|
F|---2---------2-----------2--------2----------2-----------2----|
C|--------------------------------------------------------------|
G|--------------------------------------------------------------|
D|--------------------------------------------------------------|

d|----------0----------0-------------------------------------------------|
A|------1----------1-------1--------------3-------------------1----------|
F|---0---------0---------------0--------------4-------------------2------|
C|-------------------------------------5------------5------3----------3--|
G|-----------------------------------------------------------------------|
D|-----------------------------------------------------------------------|


Chorus x 2:

-----<-----------<-----------<------<-----------<-----------<------
d|----1---1---1---1---1---1---1---1---0---0---0---0---0---0---0---0--|
A|----1---1---1---1---1---1---1---1---1---1---1---1---1---1---1---1--|
F|----2---2---2---2---2---2---2---2---2---2---2---2---2---2---2---2--|
C|----0---0---0---0---0---0---0---0---3---3---3---3---3---3---3---3--|
G|-------------------------------------------------------------------|
D|-------------------------------------------------------------------|

-----<-----------<-----------<------<-----------<-----------<---------
d|------------------------------------3---3---3---3---3---3---3---3-----|
A|----1---1---1---1---1---1---1---1---0---0---0---0---0---0---0---0-----|
F|----0---0---0---0---0---0---0---0---0---0---0---0---0---0---0---0-----|
C|----2---2---2---2---2---2---2---2---0---0---0---0---0---0---0---0-----|
G|----3---3---3---3---3---3---3---3---2---2---2---2---2---2---2---2-----|
D|------------------------------------3---3---3---3---3---3---3---3-----|


Verse x 2:

d|----------1----------1-------------------0---------0----------|
A|------1----------1----------1--------1----------1-------------|
F|---2---------2-----------2--------2----------2-----------2----|
C|--------------------------------------------------------------|
G|--------------------------------------------------------------|
D|--------------------------------------------------------------|

d|----------0----------0-------------------------------------------------|
A|------1----------1-------1--------------3-------------------1----------|
F|---0---------0---------------0--------------4-------------------2------|
C|-------------------------------------5------------5------3----------3--|
G|-----------------------------------------------------------------------|
D|-----------------------------------------------------------------------|


Chorus x 2:

-----<-----------<-----------<------<-----------<-----------<------
d|----1---1---1---1---1---1---1---1---0---0---0---0---0---0---0---0--|
A|----1---1---1---1---1---1---1---1---1---1---1---1---1---1---1---1--|
F|----2---2---2---2---2---2---2---2---2---2---2---2---2---2---2---2--|
C|----0---0---0---0---0---0---0---0---3---3---3---3---3---3---3---3--|
G|-------------------------------------------------------------------|
D|-------------------------------------------------------------------|

-----<-----------<-----------<------<-----------<-----------<---------
d|------------------------------------3---3---3---3---3---3---3---3-----|
A|----1---1---1---1---1---1---1---1---0---0---0---0---0---0---0---0-----|
F|----0---0---0---0---0---0---0---0---0---0---0---0---0---0---0---0-----|
C|----2---2---2---2---2---2---2---2---0---0---0---0---0---0---0---0-----|
G|----3---3---3---3---3---3---3---3---2---2---2---2---2---2---2---2-----|
D|------------------------------------3---3---3---3---3---3---3---3-----|


Prebreakdown:

-----<-----------<-----------<-----------<-------<---
d|----1---1---1---1---1---1---1---1---1---1-1-1-1-1----|
A|----1---1---1---1---1---1---1---1---1---1-1-1-1-1----|
F|----2---2---2---2---2---2---2---2---2---2-2-2-2-2----|
C|----0---0---0---0---0---0---0---0---0---0-0-0-0-0----|
G|-----------------------------------------------------|
D|-----------------------------------------------------|


Breakdown (part 1) x 2:

-----<-----------<-----------<------<-----------<-----------<------
d|----1---1---1---1---1---1---1---1---0---0---0---0---0---0---0---0--|
A|----1---1---1---1---1---1---1---1---1---1---1---1---1---1---1---1--|
F|----2---2---2---2---2---2---2---2---2---2---2---2---2---2---2---2--|
C|----0---0---0---0---0---0---0---0---3---3---3---3---3---3---3---3--|
G|-------------------------------------------------------------------|
D|-------------------------------------------------------------------|


d|--------------------------------------------------------|
A|--------------------------------------------------------|
F|--------------------------------------------------------|
C|--------------------------------------------------------|
G|-----------3--2--------2--3-----------3--2--------2--3--|
D|----3--3--------1--1-----------3--3--------1--1---------|


Breakdown (part 2) x 6:


d|--------------------------------------------------------|
A|--------------------------------------------------------|
F|--------------------------------------------------------|
C|--------------------------------------------------------|
G|-----------3--2--------2--3-----------3--2--------2--3--|
D|----3--3--------1--1-----------3--3--------1--1---------|


Bridge:

---<--------<--------<-----
d|--x--x--x--x--x--x--x--x--|
A|--x--x--x--x--x--x--x--x--|
F|--x--x--x--x--x--x--x--x--|
C|--x--x--x--x--x--x--x--x--|
G|--x--x--x--x--x--x--x--x--|
D|--x--x--x--x--x--x--x--x--|


Chorus x 12:

-----<-----------<-----------<------<-----------<-----------<------
d|----1---1---1---1---1---1---1---1---0---0---0---0---0---0---0---0--|
A|----1---1---1---1---1---1---1---1---1---1---1---1---1---1---1---1--|
F|----2---2---2---2---2---2---2---2---2---2---2---2---2---2---2---2--|
C|----0---0---0---0---0---0---0---0---3---3---3---3---3---3---3---3--|
G|-------------------------------------------------------------------|
D|-------------------------------------------------------------------|

-----<-----------<-----------<------<-----------<-----------<---------
d|------------------------------------3---3---3---3---3---3---3---3-----|
A|----1---1---1---1---1---1---1---1---0---0---0---0---0---0---0---0-----|
F|----0---0---0---0---0---0---0---0---0---0---0---0---0---0---0---0-----|
C|----2---2---2---2---2---2---2---2---0---0---0---0---0---0---0---0-----|
G|----3---3---3---3---3---3---3---3---2---2---2---2---2---2---2---2-----|
D|------------------------------------3---3---3---3---3---3---3---3-----|

Chorus x1 with fade out:

-----<-----------<-----------<------<-----------<-----------<------
d|----1---1---1---1---1---1---1---1---0---0---0---0---0---0---0---0--|
A|----1---1---1---1---1---1---1---1---1---1---1---1---1---1---1---1--|
F|----2---2---2---2---2---2---2---2---2---2---2---2---2---2---2---2--|
C|----0---0---0---0---0---0---0---0---3---3---3---3---3---3---3---3--|
G|-------------------------------------------------------------------|
D|-------------------------------------------------------------------|

-----<-----------<-----------<------<-----------<-----------<---------
d|------------------------------------3---3---3---3---3---3---3---3-----|
A|----1---1---1---1---1---1---1---1---0---0---0---0---0---0---0---0-----|
F|----0---0---0---0---0---0---0---0---0---0---0---0---0---0---0---0-----|
C|----2---2---2---2---2---2---2---2---0---0---0---0---0---0---0---0-----|
G|----3---3---3---3---3---3---3---3---2---2---2---2---2---2---2---2-----|
D|------------------------------------3---3---3---3---3---3---3---3-----|


| /  slide up
| \  slide down
| h  hammer-on
| p  pull-off
| ~  vibrato
| +  harmonic
| x  Mute note
| < stress note
That's it. Hope this helps.
            
Submit corrections

comments powered by Disqus
↑ Back to top | Young Love Tabs for Close Your Eyes. Lyrics for acoustic guitar and electric guitar. 1 Tablatures and chords are parodies/interpretations of the original songs. You may use it for private study, scholarship, research or language learning purposes only