» » »

Young Love, Close Your Eyes Tabs (ver.3)

Artists:  A B C D E F G H I J K L M N O P Q R S T U V W X Y Z # 

Close Your Eyes Tabs (ver.3)

Young Love Tabs
 Rating:
4/5 (10 votes)
Close Your Eyes lessons Tabs too difficult? Try these video lessons and learn fast
                This is the first song I've ever attempted tabbing, so bear with me. 
I noticed the version of this song I had been playing was different from the one
Dan Keyes plays live. 
It has some flaws but it still sounds pretty good to me. 



[Intro/Verse]

e|--------1--------1--------------0--------0--------------0--------0-----------------------------|
B|-----1--------1--------1-----1--------1--------1-----1--------1--------1-----3--------1--------|
G|--2--------2--------2-----2--------2--------2-----0--------0--------0-----------4--------2-----|
D|--------------------------------------------------------------------------5--------5--------3--|
A|-----------------------------------------------------------------------------------------------|
E|-----------------------------------------------------------------------------------------------|
 (x3)

[Chorus] 

e|--1-1-1-1-1--|--0-0-0-0-0--|--0-0-0-0-0--|--0-0-0-0-0--|
B|--1-1-1-1-1--|--1-1-1-1-1--|--1-1-1-1-1--|--1-1-1-1-1--|
G|--2-2-2-2-2--|--2-2-2-2-2--|--0-0-0-0-0--|--0-0-0-0-0--|
D|--0-0-0-0-0--|--3-3-3-3-3--|--2-2-2-2-2--|--0-0-0-0-0--|
A|-------------|-------------|--3-3-3-3-3--|--2-2-2-2-2--|
E|-------------|-------------|-------------|--3-3-3-3-3--| (x2)

[Verse]

e|--------1--------1--------------0--------0--------------0--------0-----------------------------|
B|-----1--------1--------1-----1--------1--------1-----1--------1--------1-----3--------1--------|
G|--2--------2--------2-----2--------2--------2-----0--------0--------0-----------4--------2-----|
D|--------------------------------------------------------------------------5--------5--------3--|
A|-----------------------------------------------------------------------------------------------|
E|-----------------------------------------------------------------------------------------------|
 (x2)

[Chorus] 

e|--1-1-1-1-1--|--0-0-0-0-0--|--0-0-0-0-0--|--0-0-0-0-0--|
B|--1-1-1-1-1--|--1-1-1-1-1--|--1-1-1-1-1--|--1-1-1-1-1--|
G|--2-2-2-2-2--|--2-2-2-2-2--|--0-0-0-0-0--|--0-0-0-0-0--|
D|--0-0-0-0-0--|--3-3-3-3-3--|--2-2-2-2-2--|--0-0-0-0-0--|
A|-------------|-------------|--3-3-3-3-3--|--2-2-2-2-2--|
E|-------------|-------------|-------------|--3-3-3-3-3--| (x2)

e|--1-1-1-1-1-1-1-1-1-1--|
B|--1-1-1-1-1-1-1-1-1-1--|
G|--2-2-2-2-2-2-2-2-2-2--|
D|--0-0-0-0-0-0-0-0-0-0--|
A|--x-x-x-x-x-x-x-x-x-x--|
E|--x-x-x-x-x-x-x-x-x-x--|

Where are we going?...              Have we gone too far?...

e|--1-1-1-1-1--|--0-0-0-0-0--|-----------------------------------|
B|--1-1-1-1-1--|--1-1-1-1-1--|-----------------------------------|
G|--2-2-2-2-2--|--2-2-2-2-2--|-----------------------------------|
D|--0-0-0-0-0--|--3-3-3-3-3--|-----------------------------------|
A|-------------|-------------|------1-0-----0-1-----1-0-----0-1--|
E|-------------|-------------|--3-3-----1-1-----3-3-----1-1------|

Losing our clothing... 

e|--1-1-1-1-1--|--0-0-0-0-0--|
B|--1-1-1-1-1--|--1-1-1-1-1--|
G|--2-2-2-2-2--|--2-2-2-2-2--|
D|--0-0-0-0-0--|--3-3-3-3-3--|
A|-------------|-------------|
E|-------------|-------------|

Have we gone too far?...

e|-------------------|
B|-------------------|
G|-------------------|
D|-------------------|
A|------1-0-----0-1--|
E|--3-3-----1-1------| (x8)

(Repeat chorus for the remainder of the song.)
            
Submit corrections

comments powered by Disqus
↑ Back to top | Young Love Tabs for Close Your Eyes. Lyrics for acoustic guitar and electric guitar. Tablatures and chords are parodies/interpretations of the original songs. You may use it for private study, scholarship, research or language learning purposes only