» » »

Turn Tail Tabs (ver.3)

Artists:  A B C D E F G H I J K L M N O P Q R S T U V W X Y Z # 

Turn Tail Tabs (ver.3)

Young Knives
Rating:
0/5 (0 votes)

Hard to play? Try these video lessons and learn fast.
                simple yet elegant song from the geek rock trio

intro

riff1
e|------------------|-----------------|
b|------------------|-----------------|
g|------12--------12|------12-------12| x8
d|10-10-----10-10---|10-10-----10-10--|
a|------------------|-----------------|
e|------------------|-----------------|

riff2
e|-------------|-----------------|
b|8-8-8-8------|10-10-10-10-8))))|
g|9-9-9-9-9--9-|10-10-10-10-9))))|   )))) = let ring
d|--------10-10|-----------------|
a|-------------|-----------------|
e|-------------|-----------------|

e|------------------|-----------------|
b|------------------|-----------------|
g|------12--------12|------12-------12|
d|10-10-----10-10---|10-10-----10-10--|
a|------------------|-----------------|
e|------------------|-----------------|

play riff2 twice

verse

e|------------------------|
b|------------------------|
g|--12-9--12-9--12-9--12-9|
d|10----10----10----10----| repeat however many times necessary
a|------------------------|
e|------------------------|

string orchestra part 1 - originally played an assortment of string instruments if you 
want to play this properly riff2 is played underneath the strings.

e|-------------|----------|
b|-------------|----------|
g|12-10-9------|-----9----|
d|-------10----|10-12-10--|
a|-------------|----------|
e|-------------|----------|

repeat verse

chorus- just strum

e|1-1-1-1-1-1-1-1|1-1-1-1-1-1-1-1|---------------|---------------|
b|1-1-1-1-1-1-1-1|1-1-1-1-1-1-1-1|1-1-1-1-1-1-1-1|1-1-1-1-1-1-1-1|
g|2-2-2-2-2-2-2-2|2-2-2-2-2-2-2-2|0-0-0-0-0-0-0-0|0-0-0-0-0-0-0-0|
d|3-3-3-3-3-3-3-3|3-3-3-3-3-3-3-3|2-2-2-2-2-2-2-2|2-2-2-2-2-2-2-2|
a|3-3-3-3-3-3-3-3|3-3-3-3-3-3-3-3|3-3-3-3-3-3-3-3|3-3-3-3-3-3-3-3|
e|1-1-1-1-1-1-1-1|1-1-1-1-1-1-1-1|---------------|---------------|
 we're all slaves on this ship etc


e|---------------|---------------|---------------|---------------|
b|1-1-1-1-1-1-1-1|1-1-1-1-1-1-1-1|1-1-1-1-1-1-1-1|1-1-1-1-1-1-1-1|
g|2-2-2-2-2-2-2-2|2-2-2-2-2-2-2-2|0-0-0-0-0-0-0-0|0-0-0-0-0-0-0-0|
d|2-2-2-2-2-2-2-2|2-2-2-2-2-2-2-2|2-2-2-2-2-2-2-2|2-2-2-2-2-2-2-2|
a|0-0-0-0-0-0-0-0|0-0-0-0-0-0-0-0|3-3-3-3-3-3-3-3|3-3-3-3-3-3-3-3|
e|---------------|---------------|---------------|---------------|
turn tail and run etc

repeat verse

repeat chorus

bridge- use a distortion pedal to get the guitar to squeal a bit and make more noise.

e|-------------|-------------|
b|-------------|-------------|
g|-------------|-------------|
d|7-7-7-7////p0|7-7-7-7////p0|
a|7-7-7-7////p0|7-7-7-7////p0|
e|5-5-5-5////p0|5-5-5-5////p0|
JUMP FROM THE PROW! etc

ok not entirely sure how the solo goes but i play it a bit like this
e|-----------------|
b|-----------------|
g|-----------------|
d|7-7-7-7-7-7-7-7-7| go mental playing this for a while
a|7-7-7-7-7-7-7-7-7|
e|5-5-5-5-5-5-5-5-5|

e|------------|12/10/8/10/8/7/8/7/5/7/5/3/5~~~~~~~~~~~|
b|-------10~~~|---------------------------------------|
g|9-10-12-----|---------------------------------------|
d|------------|---------------------------------------|
a|------------|---------------------------------------|
e|------------|---------------------------------------|
            
Hard to play? Try these video lessons and learn fast. | Correct




comments powered by Disqus
↑ Back to top | Tablatures and chords are parodies/interpretations of the original songs. You may use it for private study, scholarship, research or language learning purposes only