» » »

Turn Tail Bass tabs (ver.1)

Artists:  A B C D E F G H I J K L M N O P Q R S T U V W X Y Z # 

Turn Tail Bass tabs (ver.1)

Young Knives
Rating:
0/5 (0 votes)

Hard to play? Try these video lessons and learn fast.
                G|-------|-------|   |-----------------|-------------------|
D|7-7-7-7|-------|   |7-7-7-7---7-7-7-7|---5----5----5----5|
A|-------|3-3-3-3| X2|-----------------|3-3--3-3--3-3--3-3-| X2   
E|-------|-------|   |-----------------|-------------------|

G|---9----9----9----9|-------------------|
D|7-7--7-7--7-7--7-7-|---5----5----5----5|
A|-------------------|3-3--3-3--3-3--3-3-|
E|-------------------|-------------------|
            
Hard to play? Try these video lessons and learn fast. | Correct




comments powered by Disqus
↑ Back to top | Tablatures and chords are parodies/interpretations of the original songs. You may use it for private study, scholarship, research or language learning purposes only