» » »

Young Knives, Terra Firma Tabs (ver.2)

Artists:  A B C D E F G H I J K L M N O P Q R S T U V W X Y Z # 

Terra Firma Tabs (ver.2)

Young Knives Tabs
 Rating:
4.2/5 (5 votes)
Terra Firma lessons Tabs too difficult? Try these video lessons and learn fast
                Band - The Young Knives
Song - Terra Firma

Great Song By A Cool Band!
The Other Tab Was Missing The Intro Solo And Bridge,
Other Than That It Was Dead On!

Intro Solo
|-----------------------------------|
|-------------------5-2--2----------|
|------------2-4-4b--------2--------|
|-------2-4------------------2------|
|-0--4-------------------------0-0--|
|-----------------------------------|

|------------------------|
|------------------------|
|----------2-4-4b-2------|
|------2-4---------------|
|-0--4--------------0-0--|
|------------------------|

Intro
|----------------------|
|----------------------|
|----4----4----4----4--| x4
|----------------------|
|-2----2----2----2-----|
|----------------------|

Verse
|-------------------------------------|
|-------------------------------------|
|-------------------------------------|
|-0-2-4--0-2-4--0-2-4--0-2-4--0-2-4-2-|
|-------------------------------------|
|-------------------------------------|

Chorus
|--------------------------------------------------|
|--------------------------------------------------|
|------4------------7----------6------------5------|
|---------X16----------X4----------X2----------X2--|
|---2-----------5-----------4------------3---------|
|--------------------------------------------------|

Bridge
|------------------|--------------------------|
|-9--777-----------|-9--777-------------------|
|-9--777-----------|-9--777-------------------|
|-9--777-----------|-9--777-------------------| x2
|-7--555--9-8-7-5--|-7--555--999-888-777-555--|
|------------------|--------------------------|

|------------------|----------------------|
|-9--777-----------|-9--777---------------|
|-9--777-----------|-9--777---------------|
|-9--777-----------|-9--777--------55-44--|
|-7--555--9-8-7-5--|-7--555--22-44--------|
|------------------|----------------------|

|------------------|--------------------------|
|-9--777-----------|-9--777-------------------|
|-9--777-----------|-9--777-------------------|
|-9--777-----------|-9--777-------------------|
|-7--555--9-8-7-5--|-7--555--999-888-777-555--|
|------------------|--------------------------|

Structure
Intro Solo
Intro
Verse
Chorus
Verse
Chorus
Bridge
Chorus

Rate & Comment Please!!!
            
Submit corrections

comments powered by Disqus
↑ Back to top | Young Knives Tabs for Terra Firma. Lyrics for acoustic guitar and electric guitar. Tablatures and chords are parodies/interpretations of the original songs. You may use it for private study, scholarship, research or language learning purposes only