» » »

Young Knives, Terra Firma Bass tabs (ver.1)

Artists:  A B C D E F G H I J K L M N O P Q R S T U V W X Y Z # 

Terra Firma Bass tabs (ver.1)

Young Knives Tabs
 Rating:
4/5 (5 votes)
Terra Firma lessons Tabs too difficult? Try these video lessons and learn fast
                Artist - The Young Knives
Song - Terra Firma
Album - Forthcoming, due for release in January, so I believe
Track - ?
Bassist - The House of Lords

Intro
G---------------------|
D---------------------|
A-------------5h7/----|
E-5---5-5---5---------| x2

G-----------------|
D-----------------|
A-2-2-2-2-2-2-2-2-|
E-----------------| x2

Verse
G-----------------------------------|
D-----------------------------------|
A-/7-7-7-7-5-5-5-5-2-2-2-2-2-2-2-22-|
E-----------------------------------| x3

G-----------------|
D-----------------|
A-7-7-7-7-5-5-5-5-|
E-----------------| x1

Chorus
G-----------------|
D-----------------|
A-2-2-2-2-2-2-2-2-|
E-----------------| x2

G-----------------|
D-----------------|
A-5-5-5-5-4-4-3-3-|
E-----------------| x1

G-----------------|
D-----------------|
A-2-2-2-2-2-2-2-2-|
E-----------------| x2

G-----------------|
D-----------------|
A-5-5-5-5-4-4-3-3-|
E-----------------| x1

Verse 2: Same as Verse 1

Chorus

Bridge
G----------------------------4---6---7---8-|
D------------------------------------------|
A-/7-7-7-7-5-5-5-5-2-2-2-2-2---4---5---6---|
E------------------------------------------|

G------------------------------------------|
D------------------------------------------|
A-/7-7-7-7-5-5-5-5-2-2-2-2/9---8---7---6---|
E------------------------------------------|

G----------------------------4---6---7---8-|
D------------------------------------------|
A-/7-7-7-7-5-5-5-5-2-2-2-2-2---4---5---6---|
E------------------------------------------|

G----------------------------------|
D----------------------------------|
A-/7-7-7-7-5-5-5-5-2-2-2-2-2-2-2-2-|
E----------------------------------|

Chorus

End with A-2-

TERRA FIRMA!!!
            
Submit corrections

comments powered by Disqus
↑ Back to top | Young Knives Bass for Terra Firma. Lyrics for acoustic guitar and electric guitar. Tablatures and chords are parodies/interpretations of the original songs. You may use it for private study, scholarship, research or language learning purposes only