» » »

She's Attracted To Tabs (ver.2)

Artists:  A B C D E F G H I J K L M N O P Q R S T U V W X Y Z # 

She's Attracted To Tabs (ver.2)

Young Knives
Rating:
0/5 (0 votes)

Hard to play? Try these video lessons and learn fast.
                Hey thought I’d tab this song up as the young knives are such an awesome band but nobody 
knows about them.
I also did the bass bit which i'm pretty sure is the same the whole way through. So enjoy.

Bass Part played on intro and throughout song.

e|-----------------------------------------------------------|
B|-----------------------------------------------------------|
G|-----------------------------------------------------------|
D|------------------------33335555---------------------------|
A|---5-55---5-55---5-55--------------------------------------|
E|----5--5---5--5---5--5-------------------------------------|

Guitar
e|---12------------------------------------------------------|
B|------12---------------------------------------------------|
G|---------12------------------------------------------------|
D|------------12-(let ring)----------------------------------|
A|-----------------------------------------------------------|
E|-----------------------------------------------------------|

Verse
e|-------------------------------------------|
B|---88-88--7--------------------------------|
G|---77-77--7-(let ring)---------------------|
D|---77-77--7-----------------x5-------------|
A|---55-55--5--------------------------------|
E|-------------------------------------------|

There is a lot of distorted fuzz before the chorus.

Chorus
e|-------------------------------------------|
B|-------------------------------------------|
G|---7-777---7-777---7-777-------------------|
D|---7-777---7-777---7-777---7755-------x2---|
A|---5-558---5-558---5-558-------8877--------|
E|----5-------5-------5----------------------|

Verse
e|-------------------------------------------|
B|---7--------------88-88--7-----------------|
G|---7- (let ring)--77-77--7-(let ring)------|
D|---7--------------77-77--7--------x3-------|
A|---5--------------55-55--5-----------------|
E|-------------------------------------------|

There is a lot of distorted fuzz before the chorus.

Chorus
e|-------------------------------------------|
B|-------------------------------------------|
G|---7-777---7-777---7-777-------------------|
D|---7-777---7-777---7-777---7755-------x2---|
A|---5-558---5-558---5-558-------8877--------|
E|----5-------5-------5----------------------|

Here comes the “la la la” bit. Which goes like this. And they are 11s not 1s.
e|-------------------------------------------|
B|-------------------------------------------|
G|---1111-99-77-9----x4----------------------|
D|-------------------------------------------|
A|-------------------------------------------|
E|-------------------------------------------|
Verse
e|-------------------------------------------|
B|---7--------------88-88--7-----------------|
G|---7- (let ring)--77-77--7-(let ring)------|
D|---7--------------77-77--7--------x2-------|
A|---5--------------55-55--5-----------------|
E|-------------------------------------------|

At the end of the punching your dad bits this comes in
and then carries on for a bar or two afterwards before going back to the chorus for the 
time.

e|-12--10-12--10--12--10-12-10--10---------------------------------|
B|---------------------------------12--10-12--10--12--10-12-10--10-|
G|-----------------------------------------------------------------|
D|-----------------------------------------------------------------|
A|-----------------------------------------------------------------|
E|-----------------------------------------------------------------|

Last Chorus
e|-------------------------------------------|
B|-------------------------------------------|
G|---7-777---7-777---7-777-------------------|
D|---7-777---7-777---7-777---7755-------x2---|
A|---5-558---5-558---5-558-------8877--------|
E|----5-------5-------5----------------------|

e|-------------------------------------------|
B|-------------------------------------------|
G|---7755------------------------------------|
D|-------88775--6--7--8--9-(let ring)--------|
A|-------------------------------------------|
E|-------------------------------------------|
            
Hard to play? Try these video lessons and learn fast. | Correct




comments powered by Disqus
↑ Back to top | Tablatures and chords are parodies/interpretations of the original songs. You may use it for private study, scholarship, research or language learning purposes only