» » »

Young Knives, She's Attracted To Bass tabs (ver.1)

Artists:  A B C D E F G H I J K L M N O P Q R S T U V W X Y Z # 

She's Attracted To Bass tabs (ver.1)

Young Knives Tabs
 Rating:
4/5 (4 votes)
She's Attracted To lessons Tabs too difficult? Try these video lessons and learn fast
                Artist - The Young Knives
Song - She's Attracted To
Album - Voices of Animals and Men
Track - 9
Bassist - The House of Lords

Intro and First Verse:
G-------------------------------------------|
D----------------------------------33335555-|
A-5-0-55-0---5-0-55-0---5-0-55-0------------|
E-------------------------------------------| x7

G-/7---77-----7---77----/7---77-----10-10---12-12-|
D----7----7-----7-----7----7----7-----------------|
A-------------------------------------------------|
E-------------------------------------------------| x1

Chorus:
G-------------------------------------------|
D----------------------------------33335555-|
A-5-0-55-0---5-0-55-0---5-0-55-0------------|
E-------------------------------------------| x2

Verse 2:
G-------------------------------------------|
D----------------------------------33335555-|
A-5-0-55-0---5-0-55-0---5-0-55-0------------|
E-------------------------------------------| x3

G-/7---77-----7---77----/7---77-----10-10---12-12-|
D----7----7-----7-----7----7----7-----------------|
A-------------------------------------------------|
E-------------------------------------------------| x1

Chorus:
G-------------------------------------------|
D----------------------------------33335555-|
A-5-0-55-0---5-0-55-0---5-0-55-0------------|
E-------------------------------------------| x2

Bridge:
G-------------------------------------------|
D----------------------------------33335555-|
A-5-0-55-0---5-0-55-0---5-0-55-0------------|
E-------------------------------------------| x2

Verse 3:
G-------------------------------------------|
D----------------------------------33335555-|
A-5-0-55-0---5-0-55-0---5-0-55-0------------|
E-------------------------------------------| x1

G-------------------------------------------|
D----------------------------------333355---|
A-5-0-55-0---5-0-55-0---5-0-55-0------------|
E-------------------------------------------| x1

Break

The "You Were Screaming.." bit:
G-------------------------------------------|
D----------------------------------33335555-|
A-5-0-55-0---5-0-55-0---5-0-55-0------------|
E-------------------------------------------| x6

Final Chorus:
G-------------------------------------------|
D----------------------------------33335555-|
A-5-0-55-0---5-0-55-0---5-0-55-0------------|
E-------------------------------------------| x2

End with:
G-------------|
D-------------|
A-5~~~~~~-----|
E-------------| x1
            
Submit corrections

comments powered by Disqus
↑ Back to top | Young Knives Bass for She's Attracted To. Lyrics for acoustic guitar and electric guitar. Tablatures and chords are parodies/interpretations of the original songs. You may use it for private study, scholarship, research or language learning purposes only